Wolfgang Tabs

Beast

1 versions

TAB

            Beast Tab by Wolfgang


                          "BEAST" BY WOLFGANG
                       transcribed by: freongang
                  visit me at: freongang_81@yahoo.com  
                         freongang_08@yahoo.com                   

intro:
      x4
e|-----------------------------|
B|-----8-----9-----10-----9----|
G|-0-7---0-7---0-7----0-7------|
D|-----------------------------|
A|-----------------------------|
E|-----------------------------|

 and to the beast, i love you... 
e|-----------------------------|
B|-----------------------------|
G|-------------------^---^-----|
D|---------6-5---8--7-8-8-7----|
A|-----5-4---------------------|
E|-0-3-------------------------|

 and to the beast...
e|-----------------------------|
B|-----------------------------|
G|-----------------------------|
D|--------------^--------------|
A|-------------7-6-------------|
E|-0-0-0-0-0-0-5-4-------------|

 you can't run...
e|-----------------------------|
B|-----------------------------|
G|-----------------------------|
D|-----8---------6-------------|
A|---7---5-----5---5-----------|
E|-5---------3-----------------|

 solo:
e|-----------------------0------0----------------|
B|---------------------0------0------------------|
G|-9-9-9-9-9-9-9-9---9------9------12b-12b-12b---|
D|-----------------------------------------------|
A|-----------------------------------------------|
E|-----------------------------------------------|

e|---------------------------------------------------------|
B|----13b-14b-12b-11---------------------------------------|
G|-12----------------12-14-15b--14-15---17b-17b-17b-17b----|
D|---------------------------------------------------------|
A|---------------------------------------------------------|
E|---------------------------------------------------------|

e|----------------------------------|
B|-19-17-15-17-15-14----------------|
G|-------------------17-15-14-------|
D|----------------------------------|
A|----------------------------------|
E|----------------------------------|

e|-------15-------------------------|
B|----12-15----10-9----10-9---8-7---|
G|-14-------12------11------9-------|
D|----------------------------------|
A|----------------------------------|
E|----------------------------------|

e|----10-9----11-------15b-15b-15b-15b---|
B|-11------12----10----------------------|
G|---------------------------------------|
D|---------------------------------------|
A|---------------------------------------|
E|---------------------------------------|


another tribute ko to para kay manuel legarda, ang wolfgang... ang wolfgang na pinaka
paborito kong banda sa pinas......isang malaking kawalan sila sa industriya ng pinoy
rock music. kaya dito nalang sa mga naiwan nilang kanta nanaig ang pagkabuhay ng astig
na wolfgang..tnx
                 
                          freongang_81    

Added On December 16th, 2013

SHARE

Comments

blog comments powered by Disqus

ADVERTISEMENT