Wolfgang Tabs

Mula Sa Kamandag

2 versions

TAB

            Mula Sa Kamandag Tab by Wolfgang


                      "MULA SA KAMANDAG" BY WOLFGANG    
                      transcribed by: freongang
                      visit me at: freongang_81@yahoo.com              
                            freongang_08@yahoo.com                         
 

intro:
e|--------------------------|
B|--------------------------|
G|--------------------------|
D|-----8-9---10--9-9--------|
A|-2-0-8-9-0-10--9-9--------|
E|-0-0-6-7-0-8---7-7--------|

 sanggol kang isinilang.......
e|---------------------------------
B|---------------------------------|
G|---------------------------------|
D|---------------------------------|
A|--^-----------^------------------|
E|-2-3-3-3-3-3-2-4-4-5-2-----------|


e|-------------------------------------------------|
B|-------------------------------------------------|
G|--^----------------------------------------------|
D|-3-6-6-6-6-6-6-6-6-6-6-6------8-9---10--9-9------|
A|-3-6-6-6-6-6-6-6-6-6-6-6--2-0-8-9-0-10--9-9------|
E|-1-4-4-4-4-4-4-4-4-4-4-4--0-0-6-7-0-8---7-7------|

 ilawan ang daan...
e|-------------------------------------------|
B|-------------------------------------------|
G|-9-------7------9------7-------------------|
D|-9-9-----7-7----9-9----7-7-----------------|
A|-7-9-----5-7----7-9----5-7-----------------|
E|---7-------5------7------5-----------------|

im still working for the solo.......... kaya w8 nyo nlang muna medyo mahirap kc
sya....... kahit disband na ang wolfgang, bubuhayin natin sila sa paggawa ng mga
tab ni manuel legarda... tnx    

Added On December 16th, 2013

SHARE

Comments

blog comments powered by Disqus

VERSIONS

ADVERTISEMENT