Wolfmother Tabs

Tales From The Forest Of Gnomes

3 versions

TAB

            Tales From The Forest Of Gnomes Tab by Wolfmother


------------------------------------------------------------------------
          	TALES FROM THE FOREST OF GNOMES - Wolfmother
------------------------------------------------------------------------
Tabbed by: Noddy	
Email: discostu1976@hotmail.com

Comments, corrections welcome

Tuning: Standard

--------------------------
INTRO/VERSE 00:01 - 00:26
--------------------------
    
e:-----|----------------------------|-----------------3-2--0-------|   
B:-----|---2--------3-2---0---------|---0--------------------------|   	
G:-----|-------2--------------(0)---|--------0---------------------|   
D:-----|----------------------------|-------------------------(0)--|   
A:--0--|----------------------------|------------------------------|   
E:-----|----------------------------|------------------------------|     
                                                                x3     
e:---2--------------3-2---0-------|------------------------------|        
B:---------3----------------------|--2---------------------------|
G:--------------------------------|------------------------------|
D:--------------------------------|------------------------------|
A:---------------------------(0)--|------------------------------|
E:--------------------------------|------------------------------|

*First open A string is a 'pick up' bar
**I prefer to play the verse strumming
'fuller' open chords, but this is closer to
the studio version

---------------------
BRIDGE 00:27 - 00:52
---------------------

                                 x6
e:-------12----------12-----------|
B:-------10----------10-----------|      
G:-------9-----------9------------|          
D:-------0-----------0------------|  
A:--------------------------------|
E:--------------------------------|

*The chord progression here is played by the keyboard
**Open A string played at last of these repeats

--------------------
VERSE 00:53 - 01:09
--------------------

e:--------------------------------|-----------------3-2--0-------|
B:-------2--------3-2---0---------|---0--------------------------|
G:-----------2--------------------|--------0---------------------|
D:--------------------------------|-------------------------(0)--|
A:--------------------------------|------------------------------|
E:--------------------------------|------------------------------|
  
                                                                x2
e:---2--------------3-2---0-------|------------------------------|
B:---------3----------------------|--2---------------------------|
G:--------------------------------|------------------------------|
D:--------------------------------|------------------------------|
A:---------------------------(0)--|------------------------------|
E:--------------------------------|------------------------------|

---------------------
CHORUS 01:10 - 01:43
---------------------

e:---------------------------------|--------------------------------|
B:-------14-15-17--15--14h15p14----|------12-13-15--13--12h13p12----|
G:------------------------------14-|-----------------------------12-|
D:--7------------------------------|--5-----------------------------|
A:--7------------------------------|--5-----------------------------|
E:--5------------------------------|--3-----------------------------|
                                                              
                                                                x4
e:------14-15-17--15--14h15p14-----|------------------------------|
B:-----------------------------15--|------14-15-17--15-14-15-14---|
G:--7------------------------------|------------------------------|
D:--7------------------------------|--7---------------------------|
A:--5------------------------------|--7---------------------------|
E:---------------------------------|--5---------------------------|

---------------------
BRIDGE 01:44 - 02:08
---------------------
                                x6
e:-------12----------12-----------|
B:-------10----------10-----------|
G:-------9-----------9------------|  
D:-------0-----------0------------|
A:--------------------------------|
E:--------------------------------|

--------------------
VERSE 02:09 - 02:25
--------------------

e:--------------------------------|-----------------3-2--0-------|
B:-------2--------3-2---0---------|---0--------------------------|
G:-----------2--------------------|--------0---------------------|
D:--------------------------------|-------------------------(0)--|
A:--------------------------------|------------------------------|
E:--------------------------------|------------------------------|
 
                                                                x2
e:---2--------------3-2---0-------|------------------------------|
B:---------3----------------------|--2---------------------------|
G:--------------------------------|------------------------------|
D:--------------------------------|------------------------------|
A:---------------------------(0)--|------------------------------|
E:--------------------------------|------------------------------|


----------------------
CHORUS 02:26 - 02:59
----------------------

e:---------------------------------|--------------------------------|
B:-------14-15-17--15--14h15p14----|------12-13-15--13--12h13p12----|
G:------------------------------14-|-----------------------------12-|
D:--7------------------------------|--5-----------------------------|
A:--7------------------------------|--5-----------------------------|
E:--5------------------------------|--3-----------------------------|
                                                        
                                                                x4
e:------14-15-17--15--14h15p14-----|------------------------------|
B:-----------------------------15--|------14-15-17--15-14-15-14---|
G:--7------------------------------|------------------------------|
D:--7------------------------------|--7---------------------------|
A:--5------------------------------|--7---------------------------|
E:---------------------------------|--5---------------------------|


--------------------
OUTRO 03:00 - 03:23
--------------------
                                x6
e:-------12----------12-----------|
B:-------10----------10-----------|
G:-------9-----------9------------| 
D:-------0-----------0------------|
A:--------------------------------|
E:--------------------------------|    

Added On December 16th, 2013

SHARE

Comments

blog comments powered by Disqus

VERSIONS

ADVERTISEMENT