Wolves In The Throne Room Tabs

I Will Lay Down My Bones Among The Rocks And Roots

1 versions

TAB

            I Will Lay Down My Bones Among the Rocks and Roots
Wolves in the Throne Room
standard tuning

turn up that reverb!

clean intro
(the slides arent completely audible, they
kinda mute the chord)
e----------------------------------------------|
b----------------------------------------------|
g--7--\--5-----7--\--5----------0-----------0--|
d--9--\--7-----9--\--7----4--/--5-----4--/--5--|
a--0-----0-----0-----0----5--/--7-----5--/--7--|
e--0-----0-----0-----0----0-----0-----0-----0--|

e----------------------------------------------|
b----------------------------------------------|
g------------------------------0------0--------|
d--5--\--4----4--/--9----4--/--5------5--------|
a--7--\--5----5--/-10----5--/--7------7--------|
e--------0----0-----0----0-----0------0--------|


distortion
tremolo picking, pretty much keeps up for the rest
          v-the slide is fast
e----------------------------------------------|
b----------------------------------------------|
g----------------------------------------------|   repeat
d---7-----4/5----4/5---------------------------|     2x
a---0-----5/7----5/7---------------------------|
e----------------------------------------------|

e----------------------------------------------|
b----------------------------------------------|
g----------------------------------------------|
d-----5--------9----4/5------------------------|
a-----7-------10----5/7------------------------|
e----------------------------------------------|


e----------------------------------------------|
b----------------------------------------------|
g----------------------------------------------|   repeat
d---7----3----7----3----7----3----7----2-------|     2x
a---0----1----0----1----0----1----0----0-------|
e----------------------------------------------|


e----------------------------------------------|
b----------------------------------------------|
g--9---7--9---7--5--4----5---------------------|  repeat
d-10---9-10---9--7--5----7--5------------------|    4x
a---------------------------7------------------|
e----------------------------------------------|

verse
'the torment...'                      ...sanctuary
e----------------------------------------------|
b----------------------------------------------|
g--2---------2---------2---------2-------------|
d--2----3----2----3----2----3----2----3--5-----|
a--0----3----0----3----0----3----0----3--5-----|
e-------1---------1---------1---------1--3-----|

e----------------------------------------------|
b----------------------------------------------|
g--9---7--9---7--5--4----5---------------------|  repeat
d-10---9-10---9--7--5----7--5------------------|    4x
a---------------------------7------------------|
e----------------------------------------------|

after that, repeat the first line of the verse,
then it moves on to another part, which i dont
have yet, but i'm working on that....

if yu have a comment or correction, please let me know!    

Added On December 16th, 2013

SHARE

Comments

blog comments powered by Disqus

ADVERTISEMENT