Yo La Tengo Tabs

Demons

3 versions

TAB

            Intro:

e|-----0--------0------------------0------|
B|---0--------0---0----------------0------|
G|----------0-------2--0-2----------------|
D|-2-----2-4---------4----------0-2-------|     x2
A|----------------------------2---2-------|
E|--------------------------3-------------|


Verses:

e|-----0-------0------0-------0---|
B|---0-------0------0-------0-----|
G|--------------------------------|
D|-2-----2-4----4-/5----5-4-----4-|
A|--------------------------------|
E|--------------------------------|

Verse lyrics:
When she sleeps,she shuts out the essence of you
When you call her name, she trembles at what you might do

Chorus:

  C   D
Day-time

  G         A
Shiver and she might give in

  C    D
Night-time

  G         A
Demons you know can't win


Sleep with demons
They lurk but they don't make a sound
But she won't get up
Even when they're not around

Day time
Brings out the promise within
Night time
Demons you know you can't win


That's the basics of the song - the solo I haven't yet figured you, but you've got 
to play with there.    

Added On December 16th, 2013

SHARE

Comments

blog comments powered by Disqus

VERSIONS

ADVERTISEMENT