Zero 7 Tabs

Distractions

1 versions

TAB

            Great song - putting more zero 7 up soon. just tabbing through the songs at the mo.

Verses
e--6---8-------6--|
B--6---8---4---6--|
G--6---8---6---6--|
D--8---8---7---8--|
A--8---6---6---8--|
E--6-----------6--|

Chorus
e--------------6--8--6--5--4-----------------|
B--6--6--6--6--6--8--6--5--4------4------4---|
G--6--6--6--6--6--8--6--5--4----6-------3----|
D--8--7--6--5--4-----4--4--3--6-----6--5---5-|
A--8--8--8-----------------------------------|
E--6-----------------------------------------|

thats the general gist of the song and should give you enough to play throughout. can't 
bothered tabbing the solo its just playing off the chords. if you really want me to just 
so.    

Added On December 16th, 2013

SHARE

Comments

blog comments powered by Disqus

ADVERTISEMENT