Zico Chain Tabs

Rollover

1 versions

TAB

            -------------------------------------------------------------------------------
			      Rollover – Zico Chain
-------------------------------------------------------------------------------
Tabbed by: Gary the Hann
Email: Ckyfan1@hotmail.com

Tuning: Drop C


Intro
D|------------------------------|
A|------------------------------|
F|------------------------------|
C|------------------------[x4]--|
G|------------------------------|
C|--7^-9-999--7^-99-9999--------|

	
Verse
D|------------------------------------------------------------------------|
A|------------------------------------------------------------------------|
F|------------------------------------------------------------------------|
C|---------------------------------------------12-12-12-12-7-7-7-7-7-7-7--|
G|------------------------------------------------------------------------|
C|--7^-9-999--7^-99-9999--7^-9-999—7^-99-9999--12-12-12-12-7-7-7-7-7-7-7--|

D|------------------------------||-------------------------------------------------|
A|------------------------------||-------------------------------------------------|
F|------------------------------||-------------------------------------------------|
C|------------------------[x2]--||--12-12-12-12-7-7-7-7-7-7-7--7-9-999--7-99-9999--|
G|------------------------------||-----------------------------7-9-999--7-99-9999--|
C|--7^-9-999--7^-99-9999--------||--12-12-12-12-7-7-7-7-7-7-7--7-9-999--7-99-9999--|


Pre-Chorus
D|----------------------------------------------------------|
A|----------------------------------------------------------|
F|----------------------------------------------------------|
C|--4-4-4-4-7-7-7-7------------------------4-4-4-4-7-7-7-7--|
G|--4-4-4-4-7-7-7-7------------------------4-4-4-4-7-7-7-7--|
C|--4-4-4-4-7-7-7-7--7^-9-999--7^-99-9999--4-4-4-4-7-7-7-7--|


Chorus
D|--------------------------|
A|--------------------[x4]--|
F|--------------------------|
C|--9-9-7-7-12-12-7-7—------|
G|--9-9-7-7-12-12-7-7-------|
C|--9-9-7-7-12-12-7-7-------|


Bridge/Solo
D|---------------------------------------------------------------------------------|
A|---------------------------------------------------------------------------------|
F|------------------------------7777777777777777-10101010101010101010101010101010--|
C|------------------------------9999999999999999-12121212121212121212121212121212--|
G|---------------------------------------------------------------------------------|
C|--5-5-5-5-5-5-5-5-4-4-4-4-4v-----------------------------------------------------|
Slowly bend up ‘7’ & ‘10’.

D|-----------------------------------------------------------------|
A|-----------------------------------------------------------------|
F|--15-15--10-10--9-10-11^12^11v/----------------------------------|
C|-----------------------------------------------------------------|
G|-------------------------------------------------------------7~--|
C|-------------------------------------4444-7777-99999999-4444-7~--|

All the parts are there and its pretty simple to work out the formation :D
Corrections and constructive critisism welcome :P
xxx    

Added On December 16th, 2013

SHARE

Comments

blog comments powered by Disqus

ADVERTISEMENT