TAB

            Wonderful Awkward Tab by Zolof The Rock And Roll Destroyer


Part 1
eb|---------------------------------------------|
Bb|---------------------------------------------|
Gb|----5---5---5---5---5---5---5---5------------|
Db|--------------------------3---3--------------|
Ab|--3---3-----------5---5----------------------|      x4
Eb|----------3---3------------------------------|


Part 2
eb|-------------------------|
Bb|-------------------------|
Gb|----5---5---5------------|
Db|----------2---3----------|
Ab|--5---5------------------|
Eb|-------------------------|

Part 1  (Intro)
Part 2
Part 1  (Verse 1)
Part 1
Part 2
Part 1  (Verse 2)
Part 1
Part 2

Sunday 3:05
The diner was nice
I'm tired, I'm tired, I'm tired
I'm wiped out

Empty parking lots
Too awkward to talk
I'm dreaming, I'm dreaming, I'm dreaming
I'm awake
I'm awake
I'm awake
I'm awake    

Added On December 16th, 2013

SHARE

Comments

blog comments powered by Disqus

VERSIONS

ADVERTISEMENT