30 Seconds To Mars Tabs

Was It A Dream

4 versions

TAB

            Was It A Dream Tab by 30 Seconds To Mars


Song: Was it a dream
Band: 30 Seconds To Mars
Album: A Beautiful Lie
Tuning: D
Reference: http://www.youtube.com/watch?v=tVyiFdrMyCE

Just Watch it, Hear it, Try it, and Learn it.
The tab is not 100% as the video did, but I'm sure the tuning is right.
It's easy, anyone could figure it out with the video.
Catch the feeling, play it right.
Cheers.


Chords:

 A     B     C     D
d|-----|-----|-----|-----|
a|-----|-----|-----|-----|
f|--4--|-----|--7--|--9--|
c|--2--|-11--|--7--|--9--|
g|--2--|-11--|--5--|--7--|
D|-----|--9--|-----|-----|


Intro + Verse 1 

d|-----------------|-----------------|-----------------|-----------------|
a|-----------------|-----------------|-----------------|-----------------|
f|---------0-------|-----------------|---------0-------|-----------------|
c|-----4-----4---4-|-----7------7----|-----4-----4---4-|-----7------9----|
g|-2-2---2-----2---|-5-5---5--5---5--|-2-2---2-----2---|-5-5---5-7-7-----|
D|-----------------|-----------------|-----------------|-----------------|
  your defenses were on high          Your walls built deep inside
  My intentions never change          What I wanted stays the same

d|-----------------|-----------------|-----------------|-----------------|
a|-----------------|-----------------|-----------------|-----------------|
f|---------0-------|-----------------|-----------------|-----------------|
c|-----4-----4---4-|-----7------7----|-----7------7----|----11------11---|
g|-2-2---2-----2---|-5-5---5--5---5--|-0-0---0--0---0--|-9-9---9-9-9---9-|
D|-----------------|-----------------|-----------------|-----------------|
  Yeah I’m a selfish bastard          But at least I’m not alone
  And I know what I should do         It's time to set myself on fire

Chorus:

         C
Was It A Dream?

         D
Was It A Dream?

            A        B
Is this the only evidence that Proves it

  C             D
A Photograph Of You and I


Verse 1

Your reflection I’ve erased

Like a thousand burned out yesterdays

Believe me when I say goodbye forever

Is for good


Chorus

Was It A Dream?

Was It A Dream?

Is this the only evidence that Proves it

A Photograph Of You and I


Verse 2:

d|-----------------|-----------------|-----------------|-----------------|
a|-----------------|-----------------|-----------------|-----------------|
f|---------0-------|---------0-------|---------0-------|---------0-------|
c|-----4-----4---4-|-----4-----4---4-|-----4-----4---4-|-----4-----4---4-|
g|-2-2---2-----2---|-2-2---2-----2---|-0-0---0-----0---|-0-0---0-----0---|
D|-----------------|-----------------|-----------------|-----------------|

d|-----------------|-----------------|---------------------|
a|-----------------|-----------------|---------------------|
f|---------0-------|---------0-------|---------------------|
c|-----4-----4---4-|-----4-----4---4-|----11---11-11-11-11-|
g|-2-2---2-----2---|-2-2---2-----2---|-9-9---9--9--9--9--9-|
D|-----------------|-----------------|---------------------|...

Chorus:

         C
Was It A Dream?

         D
Was It A Dream?

       A             D
Is this the only evidence that Proves it

  C             D
A Photograph Of You and I    

Added On December 16th, 2013

SHARE

Comments

blog comments powered by Disqus

VERSIONS

ADVERTISEMENT