36 CrazyFists Tabs

Also Am I

1 versions

TAB

            36 Crazyfists 

Also Am I

NOT 100% BUT PRETTY MUCH ALL THERE. SOLO TO FOLLOW SOON. 
MAY NEED TO LISTEN TO THE SONG FOR THE STRUMMING PATTERN IN SOME PARTS.
 
TUNING C,G,C,F,A,D 

 INTRO
|----------------------------------------------------------| 
|----------------------------------------------------------|        
|----------------------------------------------------------|        
|---777-555-888-555-7-8------777-555-888-555-7-3-----------|        
|---777-555-888-555-7-8------777-555-888-555-7-3-----------|        
|---777-555-888-555-7-8------777-555-888-555-7-3-----------|
 
|-------------------------------------------------------------|
|-------------------------------------------------------------|       
|-------------------------------------------------------------|       
|---777-555-888-555-7-8------777-555-888-555-7-3-2-----2-3----|        
|---777-555-888-555-7-8------777-555-888-555-7-3-2-----2-3----|        
|---777-555-888-555-7-8------777-555-888-555-7-3-2-----2-3----|         


VERSE
|-------------------------------------------------------------------------------|
|-------------------------------------------------------------------------------|
|-------------------------------------------------------------------------------|
|---2-00-2-00-2-3-----2-00-2-00-2-3-----2-00-2-00-2-3--777-555-888-555-7-3------|
|---2-00-2-00-2-3-----2-00-2-00-2-3-----2-00-2-00-2-3--777-555-888-555-7-3------|
|---2-00-2-00-2-3-----2-00-2-00-2-3-----2-00-2-00-2-3--777-555-888-555-7-3------|


PRE CHORUS PT 1
|------------------------------------------------------------------|
|------------------------------------------------------------------|
|------------------------------------------------------------------|
|--9/---000-----------------9/----000------------------------------|
|--7/---000-----------------7/----000------------------------------|
|-------000-8-7-0-5h7-------------000-8-7-0-3----------------------|



PRE CHORUS PT 2 
|-----------------------------------------------------------------------------|
|-----------------------------------------------------------------------------|
|-----------------------------------------------------------------------------|
|------------------------------------------------------------------------3----|
|------------------------------------------------------------------------3----|
|--2b-000-3-2-0-2-3---2b-000-2-3-5-3----2b-000-2-3-0-2-3----2b-000-2-3-0-3----|




|-----------------------------|
|-----------------------------|
|-----------------------------|
|-----5-4---4-5-------7-------|
|---5-----5------5----7-------|
|---------------------7-------|

CHORUS 

 
|----------------------------------------------------------------|
|----13---------5-----------13----------5------------------------|
|----12---------4-----------12----------4------------------------|
|----10----x16--2---x16-----10---x16----2---x16---00--7--3-------|
|----10---------2-----------10----------2---------00--7--3-------|
|----10---------2-----------10----------2---------00--7--3-------|

VERSE 2
|--------------------------------------------------------------------------------------|
|--------------------------------------------------------------------------------------|
|--------------------------------------------------------------------------------------|
|---7-3----2-00-2-00-2-3-----2-00-2-00-2-3-----2-00-2-00-2-3--777-555-888-555-7-3------|
|---7-3----2-00-2-00-2-3-----2-00-2-00-2-3-----2-00-2-00-2-3--777-555-888-555-7-3------|
|---7-3----2-00-2-00-2-3-----2-00-2-00-2-3-----2-00-2-0-02-3--777-555-888-555-7-3------|

OURTO THE SAME AS CHOURS

CHEERS .    

Added On May 11th, 2015

SHARE

Comments

blog comments powered by Disqus

ADVERTISEMENT