36 CrazyFists Tabs

Aurora

1 versions

TAB

            Aurora Tab by 36 Crazyfists


Tabbed By Christian
guitarskategood@hotmail.com
Please rate!
Please rate!
Please rate!

Im pretty sure this ones around 90%-95%

Key: *= harmonics
     ~= vibrato
     .= palm mute
     h= hammer
     p= pull

Guitar 1= CGCFAD
Guitar 2= CGCFADGuitar 3= CGCFAD
Artist: 36 Crazyfists
Song: Aurora
Album: Rest Inside The Flames

Intro- Guitar 1+2
D --------------------------------------------------------------------------|
A --------------------------------------------------------------------------|
F -----10-9/--9-10-9-----9------10-9/--9-10-9-----9-----1010-1010-999-9-99--|
C -000-x--x/---------7-8----000-x--x/---------7-8---000-8-8--8-8--777-7-77--|
G -000-8--7/----------------000-8--7/---------------000-8-8--8-8--777-7-77--|
C -000----------------------000---------------------000-8-8--8-8--777-7-77--|
   ...                      ...                     ...      . .  ...   ..
D -------------------------------------------------------------------------|
A -------------------------------------------------------------------------|
F -121212-12---------------------------------------------------------------|
C -101010-10---------------------------------------------------------------|
G -101010-10-----r-e-p-e-a-t--o-n-c-e--------------------------------------|
C -101010-10---------------------------------------------------------------|
    . . .
Verse pt.1- Guitar1+2
D -----------------------------------------------------------|
A --10-9-10-10-9-10-10-9-10-10-9-10--------------------------|
F -7-------8-------7-------8---------------------------------|
C -----------------------------------------------------------|
G -----------------------r-e-p-e-a-t--o-n-c-e----------------|
C -----------------------------------------------------------|

Verse pt. 2 Guitar 1+2
D -----------------------------------------------------------|
A -----------------------------------------------------------|
F -----10--10--10/-9-9-*10-10--10----------------------------|
C -0-8-8--08--08/--7-7----08--08--10/------------------------|
G -0-8-8--08--08/--7-7----08--08--10/------------------------|
C -0-8-8--08--08/--7-7----08--08--10/------------------------|
   . .    .   .   . .     .   .

Verse pt. 3- Guitar 1+2
D -----------------------------------------------------|
A -----------------------------------------------------|
F -99-77-55-22-1010101010101010-99-77-55-22-1010101010-|
C -77-55-33-00-8-8-8-8-8-8-8-8--77-55-33-00-8-8-8-8-8--|
G -77-55-33-00-8-8-8-8-8-8-8-8--77-55-33-00-8-8-8-8-8--|
C -77-55-33-00-8-8-8-8-8-8-8-8--77-55-33-00-8-8-8-8-8--|
   .. .. .. .. . . . . . . . .  .. .. .. ..

Chorus pt. 1- Guitar 1+2
D -------------------------------------------------------------------------|
A -------------------------------------------------------------------------|
F -10-9-10-----------------------------------------------------10101010-10-|
C --8-8--8-22222222-00000000-3333333333333333-55555555-77777777-7-7-7-7--7-|
G --8-8--8-22222222-00000000-3333333333333333-55555555-77777777-7-7-7-7--7-|
C --8-8--8-22222222-00000000-3333333333333333-55555555-77777777-7-7-7-7--7-|

Chorus pt. 2- Guitar 1
D ----------------------------------------------------------|
A ----------------------------------------------------------|
F ----------------------------------------------------------|
C -000000-888888-777777-555555-000000-888888-777777-555555--|
G -000000-888888-777777-555555-000000-888888-777777-555555--|
C -000000-888888-777777-555555-000000-888888-777777-555555--|

Chorus pt. 2- Guitar 2
D ----------------------------------------------------------------|
A ----------------------------------------------------------------|
F --10-9-9-10--10-9-9-10--10-9-9-10--10-9-7~----------------------|
C ------7----------8----------7-----------------------------------|
G -------------------------------------------r-e-p-e-a-t----------|o-n-c-e
C -0----------8----------7----------5-----------------------------|

Modified(Chorus pt. 2)Guitar 1
D ---------------------------------------------------------|
A ---------------------------------------------------------|
F ---------------------------------------------------------|
C -0~--0--888888-777777-555555-000000-888888-777777-555555-|
G -0~--0--888888-777777-555555-000000-888888-777777-555555-|
C -0~--0--888888-777777-555555-000000-888888-777777-555555-|

Guitar 2 part modified chorus goes in right on the first 8s above.

Breakdown pt.1- Guitar 1
D ---------------------------------------------------------------------------|
A ---------------------------------------------------------------------------|
F ---------------------------------------------------------------------------|
C -000-7-5-------------0000-00--------------------------0000-00--------------|
G -000----7h8p7h8p7h8--0000-00-857810p8h10p8h10h12p10h120000-00-857810p8h10~-|
C -000--0--------------0000-00--------------------------0000-00--------------|
   ...  .              .... ..                          .... ..

D ----------------------------------------------------------------------------|
A ----------------------------------------------------------------------------|
F-----------------------------------------------------------------------------|
C -0000-00---------------------------0000-00--------------0000-00-------------|
G -0000-00-857810p8h10p8h10h12p10h12-0000-00-857810h13p12-0000-00-857810p8h12-|
C -0000-00---------------------------0000-00--------------0000-00-------------|
   .... ..                           .... ..              .... ..

D --------------------------------------------------------|
A --------------------------------------------------------|
F --------------------------------------------------------|
C -0000-00--------------0000-00---------------------------|
G -0000-00-857810h13p12-0000-00-857810p8h10p8h10h12p10h12-|
C -0000-00--------------0000-00---------------------------|
   ....-..              .... ..

Breakdown pt.1- Guitar 2 played same time as guitar 1
D ---------------------------------------------------------------------------|
A ---------------------------------------------------------------------------|
F ---------------------------------------------------------------------------|
C -000-7-5-------------0000-00--------------------------0000-00--------------|
G -000----7h8ph7h8p7h8-0000-00-857810p8h10p8h10h12p10h120000-00-857810p8h10~-|
C -000--0--------------0000-00--------------------------0000-00--------------|
   ...  .              .... ..                          .... ..

D --------------------------------------------------------------------------|
A --------------------------------------------------------------------------|
F --------------------------------------------------------------------------|
C -0000-00--------------------------0000-00---------------------------------|
G -0000-00-857810p8h10p8h10h12p10h120000-00---------------------------------|
C -0000-00--------------------------0000-00-12p9h11h12h14p12h14p12h16p12h16-|
   .... ..                          .... ..

D ---------------------------------------------------------------------|
A ---------------------------------------------------------------------|
F ---------------------------------------------------------------------|
C -0000-00---------------------0000-00---------------------------------|
G -0000-00---------------------0000-00-12p9h11h12h14p12h14p12h16p12h16-|
C -0000-00-12p9h11h12h14p12h16-0000-00---------------------------------|
   .... ..                     .... ..
Breakdown pt.1- Guitar 3 (dont play parentheses second time through)
D --------------------------------------------------------------|
A --------------------------------------------------------------|
F -------r-e-p-e-a-t--o-n-c-e-----------------------------------|
C -0000-00000----0000-00000----0000-00000----0000-00(000000000--|
G -0000-00000----0000-00000----0000-00000----0000-00(000000000--|
C -0000-00000----0000-00000----0000-00000----0000-00(000000000--|
   .... .....    .... .....    .... .....    .... .. .........

Breakdown pt.3- Guitar 1
D ------------------------------------------------------------------------|
A ------------------------------------------------------------------------|
F ------------------------------------------------------------------------|
C -0000-000-------------------0000-000------------------0000-000----------|
G -0000-000--7h8p7h10p7h8h10--0000-000--7h8p7h10p8p7h10-0000-000-7h8p7h10-|
C -0000-000-------------------0000-000------------------0000-000----------|
   .... ...                   .... ...                  .... ...

D -----------------------------|
A -----------------------------|
F -----------------------------|
C ---------000-7-5-------------|
G -p7h8h10-000----7h8ph7h8p7h8-|
C ---------000--0--------------|
           ...  .

Beggining of Chorus- Guitar 1
D ---------|
A ---------|
F -10-9-10-|
C --8-8--8-|
G --8-8--8-|
C --8-8--8-|


Well, this one took me a while. Rate it please. Seriously. other tabs by me include 
this curse bye escape the fate. you should check it.theorder of the song goes like this

(All of these include the repeats.)

1.Intro                       13.Breakdown pt.1
2.Verse pt.1                  14.Breakdown pt.2
3.Verse pt.2                  15.Breakdown pt.3
4.Verse pt.3                  16.Chorus pt.1
5.Chorus pt.1                 17.Chorus pt.2
6.Chorus pt.2                 18.Chorus pt.2
7.Verse pt.1                  19.Beggining of Chorus
8.Verse pt.2
9.Verse pt.3
10.Chorus pt.1
11.Chorus pt.2
12.Modified Chorus    

Added On December 16th, 2013

SHARE

Comments

blog comments powered by Disqus

ADVERTISEMENT