36 CrazyFists Tabs

Bloodwork

8 versions

TAB

            Bloodwork Tab by 36 Crazyfists


Drop C tuning: CGCFAD

INTRO.
P.M
--------------------------------------------------------------------------------|
--------------------------------------------------------------------------------|
--------------------------------------------------------------------------------|
-----9-9-10-10-9-9-------9-9-10-10-9-9------9-9-10-10-9-9-------12-12-10-10-9-9-|
-7-7----------------------------------------------------------------------------|
-------------------10-10----------------7-7---------------12-12-----------------|

P.M                                                           
--------------------------------------------------------------------------------|
--------------------------------------------------------------------------------|
----------------------------------------------------------------12-12-10-9b-----|
------9-9-10-10-9-9-------9-9-10-10-9-9-----9-9-10-10-9-9-----------------------|
-7-7----------------------------------------------------------------------------|
--------------------10-10---------------7-7---------------12-12-----------------|

--------------------------------------------------------------------------------|
--------------------------------------------------------------------------------|
--------------------------------------------------14-14-12-12-11-11-------------|
-2-2-0-2-0-0-10-10-10-12-10-9-7-7-\-5-/-7-7-7-0-0-------------------------------|
-2-2-0-2-0-0-10-10-10-12-10-9-7-7-\-5-/-7-7-7-0-0-12-12-10-10-9--9--------------|
-2-2-0-2-0-0-10-10-10-12-10-9-7-7-\-5-/-7-7-7-0-0-------------------------------|

VERSE.
P.M
--------------------------------------------------------------------------------|
--------------------------------------------------------------------------------|
--------------------------------------------------------------------------------|
-----9-9-10-10-9-9-------9-9-10-10-9-9------9-9-10-10-9-9-------12-12-10-10-9-9-|
-7-7----------------------------------------------------------------------------|
-------------------10-10----------------7-7---------------12-12-----------------|
X3

P.M
--------------------------------------------------------------------------------|
--------------------------------------------------------------------------------|
----------------------------------------------------------------12-12-10-9b-----|
------9-9-10-10-9-9-------9-9-10-10-9-9-----9-9-10-10-9-9-----------------------|
-7-7----------------------------------------------------------------------------|
--------------------10-10---------------7-7---------------12-12-----------------|

CHORUS.

--------------------------------------------------------------------------------|
--------------------------------------------------------------------------------|
--------------------------------------------------14-14-12-12-11-11-------------|
-2-2-0-2-0-0-10-10-10-12-10-9-7-7-\-5-/-7-7-7-0-0-------------------------------|
-2-2-0-2-0-0-10-10-10-12-10-9-7-7-\-5-/-7-7-7-0-0-12-12-10-10-9--9--------------|
-2-2-0-2-0-0-10-10-10-12-10-9-7-7-\-5-/-7-7-7-0-0-------------------------------|
--------------------------------------------------------------------------------|   X2

--------------------------------------------------------------------------------|
-9-9-9-9-11-11-11-11-12-12-12-12-14-14-14-14-9-9-9-9-9-9-9-9--------------------|
---------------------------------------------7-7-7-7-7-7-7-7--------------------|
-7-7-7-7-9--9--9--9--10-10-10-10-12-12-12-12-7-7-7-7-7-7-7-7--------------------|
---------------------------------------------7-7-7-7-7-7-7-7--------------------|
X2

MIDDLE EIGHTH.

------------------------------------------------------------------------------|
------------------------------------------------------------------------------|
------------------------------------------------------------------------------|
-3-3-3------------------------------------------------------------------------|
-3-3-3------------------------------------------------------------------------|
-3-3-3------------------------------------------------------------------------|
 (basically keep playing this note until this bit ends, listen for rhythm)

CHORUS.

--------------------------------------------------------------------------------|
--------------------------------------------------------------------------------|
--------------------------------------------------14-14-12-12-11-11-------------|
-2-2-0-2-0-0-10-10-10-12-10-9-7-7-\-5-/-7-7-7-0-0-------------------------------|
-2-2-0-2-0-0-10-10-10-12-10-9-7-7-\-5-/-7-7-7-0-0-12-12-10-10-9--9--------------|
-2-2-0-2-0-0-10-10-10-12-10-9-7-7-\-5-/-7-7-7-0-0-------------------------------|
X2

--------------------------------------------------------------------------------|
--------------------------------------------------------------------------------|
-9-9-9-9-11-11-11-11-12-12-12-12-14-14-14-14-9-9-9-9-9-9-9-9--------------------|
---------------------------------------------7-7-7-7-7-7-7-7--------------------|
-7-7-7-7-9--9--9--9--10-10-10-10-12-12-12-12-7-7-7-7-7-7-7-7--------------------|
---------------------------------------------7-7-7-7-7-7-7-7--------------------|
X2


End Bit.

------------------------------------------------------------------------------|
------------------------------------------------------------------------------|
------------------------------------------------------------------------------|
-3-3-3------------------------------------------------------------------------|
-3-3-3------------------------------------------------------------------------|
-3-3-3------------------------------------------------------------------------|
 (basically keep playing this note until the song ends, listen for rhythm)    

Added On December 16th, 2013

SHARE

Comments

blog comments powered by Disqus