36 CrazyFists Tabs

Long Roads To Late Nights

1 versions

TAB

            36 Crazyfists
Collisions And Castaways
Long Roads To Late Nights
Tuning, Drop C - CGCFAD

Sounds Pretty much 100%

D:--------------------------------------------------|
A:--------------------------------------------------|
F:--------12------------9-----4-----------4-5-5b----|
C:-----------12------10---------5-------5-----------|
G:-----10----------7--------3---------3-------------|
C:--10-----------7--------3---------2---------------|


D:--------------------------------------------------|
A:--------------------------------------------------|
F:--------12---9---4---14---16b---------------------|
C:--------------------------------------------------|
G:--------------------------------------------------|
C:--------------------------------------------------|    

Added On December 16th, 2013

SHARE

Comments

blog comments powered by Disqus

ADVERTISEMENT