36 CrazyFists Tabs

On Any Given Night

2 versions

TAB

            On Any Given Night Tab by 36 Crazyfists


36 Crazyfists - "On Any Given Night"

Tuning: CGCFAD

Hey everyone, I've never done a tab before, but I couldn't find many tabs for 36's
new album so I thought I'd take matters into my own hands. It's probably pretty inaccurate
I'm particularly not sure about the bass notes in the verse riff. But it sounds pretty 
and I hope it helps! :-)

kungfuchaos@hotmail.com

Intro Riff
--------------------------------------------------------------------------|
--------------------------------------------------------------------------|
--------------------------------------------------------------7-7-11-11---|
-9-9-9--------------------------------------------------------------------|
-------10-10-10-9-9-9-7-7-7-9-9-10-10-9-9-9-7-7-7-5-5-5-4-4-4-------------|
--------------------------------------------------------------------------|

Clean Bit
----------------|
----------------|
----------------|
---9-X9-X9-X99--|
---9-X9-X9-X99--|
---9-X9-X9-X99--|

Verse Riff I
-----------------------------------------|
-----------------------------------------|
-----------------------------------------|
-----------------------------------------|
-9-----9-----10-----9-----7---9----------|
---0-0---0-0----0-0---0-0---0---0--------|

Verse Riff 2
---------------------------------------------------------------|
--------------2----------2-------------------4---------4-------|
--2-----4------------2-------4---4-----7-----------4-------7---|
---------------------------------------------------------------|
---------------------------------------------------------------|
----0-0---0-0---0-0----0---0---0---0-0---0-0---0-0---0---0---0-|

--------------------------------------------------------------|
--------------7----------7-------------------4----------------|
--2-----4------------2-------4---4-----7----------4-----------|
------------------------------------------------------7-9-----|
------------------------------------------------------7-9-----|
----0-0---0-0---0-0----0---0---0---0-0---0-0--0-0-----7-9-----|

Chorus Chords
------------------------------------------|
------------------------------------------|
------------------------------------------|
-9-7-9-7---------9-12-9-7-----------------|
-9-7-9-7---------9-12-9-7-5-5-5-4-4-4-----|
-9-7-9-7---------9-12-9-7-----------------|

Bridge Chords
-----------|
-----------|
-----------|
-4-7--2-4--|
-4-4--2-2--|
-4-4--2-2--|

Clean Interlude
----------------------------------------------|
----------------------------------------------|
----------------------------------------------|
-----7---7-----9---9------12---12-----7---7---|
---7----7----7----7-----7-----7-----7----7----|
-7-----7---7-----7----7------7----7-----7-----|

Final Chorus
------------------------------------------|
------------------------------------------|
------------------------------------------|
-9-7-9-----------9-12-9-7-----------------|
-9-7-9-----------9-12-9-7-5-5-5-4-4-4-----|
-9-7-9-----------9-12-9-7-----------------|


Intro Riff x 2
Clean Bit
Verse I x 3
Verse II x 1
Chorus
Intro Riff x 2
Clean Bit
Verse I x 3
Verse II x 1
Chorus
Bridge x 4
Interlude x 2
Final Chorus
Intro Riff x 2    

Added On December 16th, 2013

SHARE

Comments