36 CrazyFists Tabs

Sad Lisa Intro

1 versions

TAB

            Sad Lisa Tab by 36 Crazyfists


Well this song is absolutley amazing.  These guys are so underrated.
it is by no means correct or complete.  I just saw that there was no tab
for this version and decided to tab it out.  Please feel free to add to this
tab or complete it.  I would love to see the whole song on here.  Feel
free to email me corrections or ideas or what have you.


e----------0--3--0---------0------------0--3--0----------------------|
B------0-------------3---------------0-------------3-----------------|
G------------------------2------------------------------2------------|
D--2------------------------------2------------------------0---------|
A--------------------------------------------------------------------|
E--------------------------------------------------------------------|

e----------0--3--0---------0------------0--3--0----------------------|
B------0-------------3---------------0-------------3-----------------|
G------------------------2------------------------------2------------|
D--2------------------------------2------------------------0---------|
A--------------------------------------------------------------------|
E--------------------------------------------------------------------|

e----------0--3--0----------0------------0--3--0------5-s-7----------|
B------0-------------3---------------0-------------3-----------------|
G------------------------2-------------------------------------------|
D--2------------------------------2----------------------------------|
A--------------------------------------------------------------------|
E--------------------------------------------------------------------|

e----------0--3--0---------0------------0--3--0----------------------|
B------0-------------3---------------0-------------3-----------------|
G------------------------2------------------------------2------------|
D--2------------------------------2------------------------0---------|
A--------------------------------------------------------------------|
E--------------------------------------------------------------------|


e----------0--3--7--3--0--3----------0--3------------2---------------|
B------0-----------------------------0----------------3--------------|
G---------------------------------------------------2----------------|
D--2------------------------------2------------0---------------------|
A--------------------------------------------------------------------|
E--------------------------------------------------------------------|

e---------------------------------2-----------0--3------------2------|
B-----------1-----0----------3-----------0----------------3----------|
G--------0----------------2-----------------------------2------------|
D-----2----------------0--------------2------------0-----------------|
A--3-----------------------------------------------------------------|
E--------------------------------------------------------------------|    

Added On December 16th, 2013

SHARE

Comments

blog comments powered by Disqus

ADVERTISEMENT