36 CrazyFists Tabs

Slit Wrist Theory

11 versions

TAB

            Slit Wrist Theory Tab by 36 Crazyfists


-------------------------------------------------------------------------------
			     SLIT WRIST THEORY - 36 CRAZY FISTS
-------------------------------------------------------------------------------

By:BOSTOCK

This tab i made up by ear and, trust me, is accurate.... great tab, great song, great band

ROCK ON!!!!!

e|---------------------------------------------------------------------------|
B|---------------------------------------------------------------------------|
G|---------------------------------------------------------------------------|
D|------6-6-----5-5------3-------6-6-------5-5--8----------------------------|  INTRO  X7
A|----------4-4------1-1--------------4-4---------6--------------------------|
E|-1-1----------------------1-1----------------------------------------------|

e|---------------------------------------------------------------------------|
B|---------------------------------------------------------------------------|
G|---------------------------------------------------------------------------|
D|-0H2-0-0-3-0-0-3-----------------------------------------------------------|  BRIDGE  X3
A|-0H2-0-0-3-0-0-3-----------------------------------------------------------|
E|---------------------------------------------------------------------------|

e|---------------------------------------------------------------------------|
B|---------------------------------------------------------------------------|
G|---------------------------------------------------------------------------|
D|------------0H2-0-0-3-0-0-3------------------------------------------------|BRIDGE 2X1
A|-0-2-3-X-X--0H2-0-0-3-0-0-3--0-2-3-X-X--0-2-3-X-X--------------------------|
E|-0-2-3-X-X-------------------0-2-3-X-X--0-2-3-X-X--------------------------|

e|---------------------------------------------------------------------------|
B|---------------------------------------------------------------------------|
G|---------------------------------------------------------------------------|
D|-7-7-7-7-7-10-10-10-10-10--5-----------------------------------------------|  CHORUS  X2
A|-5-5-5-5-5--8--8--8--8--8--3-3-5--5-5--3-3-3-3-X-5-------------------------|
E|-----------------------------1-3--3-3--5-5-5-5-X-3-------------------------|

INTRO X4
BRIDGE X3
BRIDGE2 X1
CHORUS X2

e|---------------------------------------------------------------------------|
e|---------------------------------------------------------------------------|
B|---------------------------------------------------------------------------|
G|---------------------------------------------------------------------------|
D|-0-0-0-0-3-3-3-3-0-0-0-0-3-3-3-3-0-0-0-0-3-3-3-3-0-0-0-0-3-2---------------|  NEXT X2
A|-0-0-0-0-3-3-3-3-0-0-0-0-3-3-3-3-0-0-0-0-3-3-3-3-0-0-0-0-3-2---------------|
E|---------------------------------------------------------------------------|

e|---------------------------------------------------------------------------|
B|---------------------------------------------------------------------------|
G|---------------------------------------------------------------------------|
D|-0H2-0-0-3-0-0-3-----------------------------------------------------------|
A|-0H2-0-0-3-0-0-3-----------------------------------------------------------|
E|---------------------------------------------------------------------------|

BRIDGE2 X1
BRIDGE X1
BRIDGE2 X1
BRIDGE X1
BRIDGE2 X1 
BRIDGE X1

e|---------------------------------------------------------------------------|
B|---------------------------------------------------------------------------|
G|---------------------------------------------------------------------------|
D|---------------------------------------------------------------------------|
A|-0-2-3-X-X-0-2-3-----------------------------------------------------------|
E|-0-2-3-X-X-0-2-3-----------------------------------------------------------|

CHORUS X2

INTRO X1...... THERE!... FINISHED... MATT BOSTOCK RULES! 

===============================================================================    

Added On December 16th, 2013

SHARE

Comments

blog comments powered by Disqus