36 CrazyFists Tabs

Slit Wrist Theory

11 versions

TAB

            Slit Wrist Theory Tab by 36 Crazyfists


Everyother tab is wrong so hear it is...

Tuning DADGBE or CGCFAD both are good!

Song: Slit Wrist Theory
Artist: 36 Crazy Fists
Album: Bitterness The Star (2003)
Tabber: Matty K.

(Intro/Verse 1)*You can use echo ped. or do the ghost note (5)*
e|--------------------------------|
b|--------------------------------|
g|--------------------------------|
d|--5--(5)--9--(9)---------7--(7)-| X8
a|------------------6--(6)--------|
d|--------------------------------|

*echo pedal good here tho*
e|------------------------|
b|------------------------|
g|------------------------|
d|--5-(5)(5)(5)(5)(5)(5)--|
a|--5-(5)(5)(5)(5)(5)(5)--|
d|--5-(5)(5)(5)(5)(5)(5)--|

(Pre-Chorus 1)   "Slit wrist theory stainds us allll!!!"
e|-----------------------------------|
b|-----------------------------------|
g|-----------------------------------|
d|--3H55-3H55-3H55------0-1-3-4-3-4--| X2
a|--3H55-3H55-3H55------0-1-3-4-3-4--|
d|--3H55-3H55-3H55------0-1-3-4-3-4--|

(Chorus)
e|-------------------------------------------------------|
b|-----------------------\/   *optional*    \/-----------|    
g|---------------------(888888--5555555--888888)---------|
d|--55555555--88888888--888888--5555555--888888--5555-3--|
a|--55555555--88888888--666666--3333333--666666--5555-3--|
d|--55555555--88888888---------------------------5555-3--|

(Verse 1)
e|-------------------------------|
b|-------------------------------|
g|-------------------------------|
d|--5--(5)--9--(9)--------7--(7)-| X 8
a|-----------------6--(6)--------|
d|-------------------------------|

(Pre-Chorus 2) *its a bit different than before*
e|--------------------------------|
b|--------------------------------|
g|--------------------------------|
d|--3H55-3H55-3H55---0-1-3-4-3-4--| x 2 *then \/*
a|--3h55-3h55-3h55---0-1-3-4-3-4--|
d|--3H55-3H55-3H55---0-1-3-4-3-4--|

*slight pause then*
e|---------------|
b|---------------|
g|---------------|
d|--0-1-3-4-3-4--|
a|--0-1-3-4-3-4--|
d|--0-1-3-4-3-4--|

(Chorus) (Gtr.1)
e|-------------------------------------------------|
b|--------------------\/*optional again* \/--------|
g|-------------------(888888-555555-888888)--------|
d|--55555555-88888888-888888-555555-888888-5555-3--| x2
a|--55555555-88888888-666666-333333-666666-5555-3--|
d|--55555555-88888888----------------------5555-3--|

(Chorus) (Gtr.2)
e|-----------------------------------------------|
b|--8888--11111111--9999-11111111-9999-11111111--|
g|--xxxx---x-x-x-x--xxxx--x-x-x-x-xxxx--x-x-x-x--|
d|--5555---8-8-8-8--7777--8-8-8-8-7777--8-8-8-8--|
a|-----------------------------------------------|
d|-----------------------------------------------|

e|--------------------------------------------------|
b|---------10101010--13-13-13-13-10101010-10101010--|
g|10101010--x-x-x-x--x--x--x--x---x-x-x-x--x-x-x-x--|
d|-x-x-x-x--8-8-8-8--10-10-10-10--7-7-7-7--7-7-7-7--|
a|-8-8-8-8------------------------------------------|
d|--------------------------------------------------|

e|-11111111--8-8--8-8--8-8-11111111-----------------|
b|--x-x-x-x--x-x--x-x--x-x--x-x-x-x--8-8--8-8--8-8--|
g|--8-8-8-8--5-5--5-5--5-5--8-8-8-8--x-x--x-x--x-x--|
d|-----------------------------------5-5--5-5--5-3--|
a|--------------------------------------------------|
d|--------------------------------------------------|

(Bridge)
e|---------------------------------------------------|
b|---------------------------------------------------|
g|---------------------------------------------------|
d|-555-3-666-3-555-3-666-3-555-3-666-3-5555-1-1-1-1--|
a|-555-3-666-3-555-3-666-3-555-3-666-3-5555-1-1-1-1--|
d|-555-3-666-3-555-3-666-3-555-3-666-3-5555-1-1-1-1--|


THE END!

Check out there New CD coming soon!! if you get a chance listen to  
The Heart And The Shape off there new cd...more kick ass than this one!

Enjoy this is an awesome song~!!~ if you play it...please dont wreck it!!!*

PEACE OUT! 
later    

Added On December 16th, 2013

SHARE

Comments

blog comments powered by Disqus