36 CrazyFists Tabs

Slit Wrist Theory

11 versions

TAB

            Slit Wrist Theory Tab by 36 Crazyfists


Intro

e|------------------------------------------------------------|
B|------------------------------------------------------------|
G|------------------------------------------------------------|
D|------3-3-6--6-----5--5--1----------------------------------|   
A|---------------3-3---------3--------------------------------|
D|------------------------------------------------------------|


e|------------------------------------------------------------|
B|------------------------------------------------------------|
G|------------------------------------------------------------|
D|------3-3-6--6-----5--5---8---------------------------------|   
A|---------------3-3----------6-------------------------------|
D|------------------------------------------------------------|



e|----------------------|          
B|----------------------|
G|----------------------|
D|-13313313-------------|   
A|-13313313-------------|
D|-13313313-------------|  (3x)


e|---------------------| 
B|---------------------|
G|---------------------|
D|-013568--------------|   
A|-013568--------------|
D|-013568--------------|  

e|----------------------|          
B|----------------------|
G|----------------------|
D|-13313313-------------|   
A|-13313313-------------|
D|-13313313-------------|  (3x)

e|---------------------| 
B|---------------------|
G|---------------------|
D|-013568--------------|   
A|-013568--------------|
D|-013568--------------|  


e|--------------------| 
B|--------------------|
G|--------------------|
D|-01356--------------|   
A|-01356--------------|
D|-01356--------------|  


e|-----------------------|          
B|-----------------------|
G|-----------------------|
D|-133334444-------------|   
A|-133334444-------------|
D|-133334444-------------|  



Not Complete but always simple :)    

Added On December 16th, 2013

SHARE

Comments

blog comments powered by Disqus