A Tabs

Nothing

5 versions

TAB

            Nothing Tab by A


Band:A 
Song:nothing

^:downwards strike
V:upwards strike

Main Riff:

    F#5                                                                                            
     ^  V  ^ V         gimme me some love...                                                                 
 E --------------------------------------------------|
 B --------------------------------------------------|
 G --------------------------------------------------|
 D --4---4---4---4-----------------------------------|
 A --4---4---4---4-----------------------------------|
 E --2---2---2---2----------(3 quarter notes rest)---|

                          A5   
       
 ^  V  ^        ^  V  ^   
 gimme me some skin...
E---------------------------------| 
B---------------------------------| 
G---------------------------------|
D--4---4---4-------7---7---7------|
A--4---4---4-------7---7---7------|
E--2---2---2-------5---5---5------|


     D5                                                                       
     ^  V  ^  V                                         
E-------------------------------------|
B-------------------------------------|
G--7---7---7--------------------------|
D--7---7---7--------------------------|
A--5---5---5--------------------------|
E-------------(3 quarter notes rest)--|

                             A5
     ^  V  ^              ^  V  ^
E-------------------------------------|
B-------------------------------------|
G-7---7---7---------------------------|
D-7---7---7----------7---7---7--------|
A-5---5---5----------7---7---7--------|
E--------------------5---5---5--------|    

Added On December 4th, 2013

SHARE

Comments

blog comments powered by Disqus

VERSIONS

ADVERTISEMENT