A Perfect Circle Tabs

Pet

4 versions

TAB

            Pet Tab by A Perfect Circle


-------------------------------------------------------------------------------
			     PET - A Perfect Circle
-------------------------------------------------------------------------------
Tabbed by: nonpoint42
Email:me2846@hotmail.com

Tuning: down 1 1/2 whole steps

   Main Riff             ( )- play every other time

c#|---------------------------------------------------------------------------|
G#|---------------------------------------------------------------------------|
E |---------------------------------------------------------------------------|
B |-4-4-4-4------4-----4-5-4--2-2-2-2-(-77777777-)----------------------------|
F#|-4-4-4-4------4-----4-5-4--2-2-2-2-(-77777777-)----------------------------|
C#|-2-2-2-2----0-2—--0-2/3\2--0-0-0-0—(-55555555-)----------------------------|

  Guitar 2

c#|----12---12---12---12--------------------------------------------------------|
G#|--15---15---15---15----------------------------------------------------------|
E |------------------------11—11/12\11---(-9-)----------------------------------|
B |-----------------------------------------------------------------------------|
F#|-----------------------------------------------------------------------------|
C#|-----------------------------------------------------------------------------|

    Verse

c#|-----------------------------------------------------------------------------|
G#|-----------------------------------------------------------------------------|
E |-----------0---------------0-------------------------------------------------|
B |--------4-----4---------------4----------------------------------------------|
F#|-----4------------------4----------------------------------------------------|
C#|--2--------------2----------------0------------------------------------------|

    Pre-chorus

c#|-----------------------------------------------------------------------------|
G#|-------------------------0------------2--------------------------------------|
E |-------------------------2------------4--------------------------------------|
B |------4-4-------------2------------4-----4-------------6---------------------|
F#|-----------------0--------0---2-----------------4----------------------------|
C#|--3-3-------------------------------------2----------------------------------|

    Chorus is same as main riff
   For the second bridge play the same things only
   more times

    the soft part of the bridge goes like this:

c#|---------------------------------------------------------------------------|
G#|----2---2---2---2-2---2------2---2-----0-----------------------------------|
E |---------------------------------------------------------------------------|
B |-4---4---4---4------4---4--2---2--0--0-------------------------------------|
F#|---------------------------------------------------------------------------|
C#|---------------------------------------------------------------------------|
    It is easy to figure out the rhythm and how many times to play it


   The heavy part of the bridge has two guitars. Guitar one has lots of wah, the other is just distorted

  Guitar One
c#|---------------------------------------------------------------------------|
G#|---------------------------------------------------------------------------|
E |-14-14-14-14-14-14-14-14-14-14--11-1111-11111111---------------------------|
B |---------------------------------------------------------------------------|
F#|-12-12-12-12-12-12-12-12-12-12--9--9-9--9-9-9-9-9--------------------------|
C#|---------------------------------------------------------------------------|


    Guitar Two
c#|---------------------------------------------------------------------------|
G#|---------------------------------------------------------------------------|
E |---------------------------------------------------------------------------|
B |---4-4----12-11---4-----12-11---99999999-44444444--------------------------|
F#|---4-4----10--9---4-----10--9---77777777-22222222--------------------------|
C#|-0-2-2-0--------0-2-0------------------------------------------------------|

    The last time guitar one plays this

c#|------------------------------------------------------|
G#|------------------------------------------------------|
E |-14-14-14-14-14-14-14-14-14-141111111111-18-18-18-18--|
B |------------------------------------------------------|
F#|-12-12-12-12-12-12-12-12-12-12-9-9-9-9-9-16-16-16-16--|
C#|------------------------------------------------------|

   Then there is the solo thing. It's hard to tab out the rhythm and timing, but these 
the notes and you can figure it out if you listen

c#|---------------------------------------------------------------------------|
G#|---------------------------------------------------------------------------|
E |---------------------------------------------------------------------------|
B |--18--18-18-18-18-----15-15-15-15---16-------------------------------------|
F#|--16--16-16-16-16-----13-13-13-13---14-------------------------------------|
C#|---------------------------------------------------------------------------|

c#|---------------------------------------------------------------------------|
G#|---------------------------------------------------------------------------|
E |---------------------------------------------------------------------------|
B |--18---22--21--20-----18--16-15-16-15--------------------------------------|
F#|--16---20--19--18-----16--14-13-14-13--------------------------------------|
C#|---------------------------------------------------------------------------|

c#|---------------------------------------------------------------------------|
G#|---------------------------------------------------------------------------|
E |11--9-9-11----14-1111--13--------------------------------------------------|
B |---------------------------------------------------------------------------|
F#|-9--7-7--9----12--9-9--11--------------------------------------------------|
C#|---------------------------------------------------------------------------|

   Play variations of that until it goes to the third part of the bridge, which is this:

c#|-----------------------------------------------------------------------------|
G#|-----------------------------------------------------------------------------|
E |-18---18--18--18---18--18--18--18--18--16--15--16---15---15------------------|
B |-----------------------------------------------------------------------------|
F#|-16---16--16--16---16--16--16--16--16--14--13--14---13---13------------------|
C#|-----------------------------------------------------------------------------|

   Guitar 2 plays the same thing through the whole heavy part of the bridge

Then at the very end of the song both guitars play this until it ends:

c#|---------------------------------------------------------------------------|
G#|---------------------------------------------------------------------------|
E |---------------------------------------------------------------------------|
B |--4-4-4--4-4-4--2----------------------------------------------------------|
F#|--4-4-4--4-4-4--2----------------------------------------------------------|
C#|--2-2-2--2-2-2--0----------------------------------------------------------|
       *      * *

   that's it. enjoy


| /  slide up
| \  slide down
| h  hammer-on
| p  pull-off
| ~  vibrato
| +  harmonic
| x  Mute note
| *  palm mute
===============================================================================    

Added On December 4th, 2013

SHARE

Comments

blog comments powered by Disqus

VERSIONS

ADVERTISEMENT