A Perfect Circle Tabs

Thomas

5 versions

TAB

            Thomas Tab by A Perfect Circle


A Perfect Circle - Thomas

All songs "Dropped D"
     
intro (clean)

e---------------------------------------------10-----|
B--6----6------5----5----5---------------------------|
G----7----7------7----7----7-----5-/-7----7----------|
D------7----7------7----7----7---5-/-7--7---7--------|
A----------------------------------------------------|
D----------------------------------------------------|

band in
e------------------------------------------|
B------------------------------------------|
G------------------------------------------|
D---0--0--3--3--10--10--x--6---------------|
A---0--0--3--3--10--10--x--6---------------|
D---0--0--3--3--10--10--x--6---------------|verse

p.m.--->
e----------------------------------------------------|
B----------------------------------------------------|
G----------------------------------------------------|
D---8...-------10--10--10----------------------------|
A---8...-------10--10--10----------------------------|
D---8...-------10--10--10----------------------------|


chorus

e------------------------------------------|
B------------------------------------------|
G--5--5--7--9---7--------------------------|
D-------------------0--0--3--10------------|
A--3--3--5--7---5---0--0--3--10------------|
D-------------------0--0--3--10------------|


you make me.......

e-------------------------------------------|
B--------------------3----------------------|
G--------------------2----------------------|
D---8--8--8--8--10---0----------------------|
A---8--8--8--8--10---0----------------------|
D---8--8--8--8--10---0----------------------|
bridge              

e------------------------------------------|
B------------------------------------------|
G------------------------------------------|
D------------------------------------------|
A------------------------------------------|
D---3^0--0-3^0-0--3^0--0-3^0--0-5^---------|    

Added On December 4th, 2013

SHARE

Comments

blog comments powered by Disqus

VERSIONS

ADVERTISEMENT