A Rocket To The Moon Tabs

I Think About You Everyday

1 versions

TAB

            Artist: A Rocket to the moon
Title: I think about you everyday
By: Devm326
Tuning: Standard

It's a very simple/good song. There is a tab for this song but it's completely wrong so 
just post my own. This isn't 100% correct but I found it to be extremely close.

Intro/Verse
e|---------------------------------------------------------------------------|
B|---------------------------------------------------------------------------|
G|----6-7-----66-7----6---~~~~~----------------------------------------------|
D|----7-7-----77-7----7---~~~~~----------------------------------------------|
A|----5-5-----55-5----7---~~~~~----------------------------------------------|
E|--------------------5---~~~~~----------------------------------------------|

Chorus [I'm pretty positive you can figure out the strumming pattern by listening to the 
so I'll just give ya the chords.]
e|------------------------------------------------------------------------------|
B|------------------------------------------------------------------------------|
G|----6-------9-------7---------------------------------------------------------|
D|----7-x8----9-x4----7---x5----------------------------------------------------|
A|----7-------7-------5---------------------------------------------------------|
E|----5-------------------------------------------------------------------------|    

Added On December 16th, 2013

SHARE

Comments

blog comments powered by Disqus

ADVERTISEMENT