Ac Newman Tabs

The Battle For Straight Time

1 versions

TAB

            This is  for two guitars of course it's just easier to tab on one stave thing

Intro:
          G#               G#
e|-------|---4-4-4-4------|---4-4-4-4-|
b|-------|--4-5-7-4-------|--4-5-7-4--|
g|-------|----------------|-----------|
d|-------|----------------|-----------|
a|--6-6-5|-6---------6-6-5|-6---------|
e|-4-0-3-|4---------4-0-3-|4----------|

Verse:
          G#               B                A       E        B   A   E
e|-------|---4-4-4-4------|---7-7-7-7------|---5-5-5-4------|---7-7-7--|
b|-------|--4-5-7-4-------|--4-5-7-4-------|--2-3-5-0-------|--4-5-7---|
g|-------|----------------|----------------|----------------|----------|
d|-------|----------------|-4---------4-4-4|-2--------------|-4--------|
a|--6-6-5|-6---------6-6-5|2---------6-2-5-|0----------6-6-5|2---------|
e|-4-0-3-|4---------4-0-3-|----------------|----------4-0-3-|----------|
   O c s  life,     w c my hands.    T r v  lut'n has b l to chance
     o w            a l              h e o            e e
     m e            s e              e | |            e f
     e e            h a                               n t
       t              n
          G#               B E  B E
e|-------|---4-4-4-4------|----------|
b|-------|--4-5-7-4-------|----------|
g|-------|----------------|----------|
d|-------|----------------|----------|
a|--6-6-5|-6---------6-6-5|9s2--9s2--|
e|-4-0-3-|4---------4-0-3-|7s0--7s0--|
   T d on me        e mnaa b three.
   h a              v oit  o
   i w              e rn   u
   s n              r  g   t
     s              y

Chorus:
B E       D A          B E
   Battle for straight time x 4

Verse:
End of the road, our clock strikes nine.
Take back the streets, or take straight time for this.
My pure gone days, every morning an about face.

Chorus:
Battle for straight time x 4

Bridge:
Again it sounds like this is two guitars. Its some sort of overdubbed thing but this 
almost like it.
e|-5s0-5-5s0-5s0--|
b|-5s0-5-5s0-5s0--|(make sure you let go so that the opens still sound)

The chords are essentially G A E7 but G is played like this
-0-
-0-
-0-
-0-
-2-
-3-

Our time in hell has served us fine.
At last alive, we'll meet at five for this.
Cocktails on me, we can light them on the count three.

Battle for straight time x 4

(Bridge to end)    

Added On December 16th, 2013

SHARE

Comments

blog comments powered by Disqus

ADVERTISEMENT