Adicts Tabs

Tango

2 versions

TAB

            Tango Tab by Adicts


-----------------------------------------------------------------------
			     Tango- The Adicts
-----------------------------------------------------------------------
Tabbed by:Robert
Email:Punknthe909@aol.com

Tuning:
Intro
e|---------------------------------------------------------------------|
B|---------------------------------------------------------------------|
G|---------------------------------------------------------------------|
D|--7---5---2----------------------------------------------------------|
A|--7---5---2----------------------------------------------------------|
E|--5---3---0----------------------------------------------------------|
Verse (4x)
e|---------------------------------------------------------------------|
B|---------------------------------------------------------------------|
G|-4-------5--6-------7------------------------------------------------|
D|-4-slide-5--6-slide-7---6-------7-----10-----------------------------|
A|-2-------3--4-------5---6-slide-7-----10-----------------------------|
E|------------------------4-------5-----8------------------------------|
Chorus:
e|---------------------------------------------------------------------|
B|---------------------------------------------------------------------|
G|--12---10------------------------------------------------------------|
D|--12---10--10-------2------------------------------------------------|
A|--10---8---10—(4x)--2------------------------------------------------|
E|-----------8--------0------------------------------------------------|


Don't know solo but verse chords are played over solo listen to song for timing    

Added On December 4th, 2013

SHARE

Comments

blog comments powered by Disqus

VERSIONS

ADVERTISEMENT