AFI Tabs

Dancing Through Sunday Solo

1 versions

TAB

            Dancing Through Sunday Tab by Afi


AFI
Dancing Through Sunday Solo
Jade Puget

I absolutly take no credit for this tab. 

Solo 
e|--------12h-15p-12------12h-15p-12--------------------------------------|A
B|----12--------------15---------------15-12h-15p-12-----12h-15p-12----12-|
G|---b14---------------------------------------------14--------------13---|
D|------------------------------------------------------------------------| 
A|------------------------------------------------------------------------| 
E|------------------------------------------------------------------------|  

e|--------------------------------------------------------------------| B
B|--------------------------------------------------------------------|   
G|--14p12--14p12----12------------------------------------------------|
D|---------------14----14p12--14p12-----------------------------------|
A|-----------------------------------14p12--14p12--12p10-12p10--------|
E|--------------------------------------------------------------12--/-|


e|----7-----8----10----11----12---------------------------------------| C
B|--b10---b11---b13---b14---b15--10h12p10--8h10p8---7h8p7-------------|
G|--------------------------------------------------------7h9p7h9-----|
D|--------------------------------------------------------------------| 
A|--------------------------------------------------------------------| 
E|--------------------------------------------------------------------|  

e|-----------------------------------------------------------------------| D
B|-17--12p9-17--12p9--17--13p10-17--12p10-17-12p9-17---------------------|
G|-T---------T--------T---------T---------T-------T--9-/-12-/-15-14-12 9-|  
D|-----------------------------------------------------------------------|
A|-----------------------------------------------------------------------|
E|-----------------------------------------------------------------------|

e|-----------------------------------------------------------------------| E
B|------------------------12----14--12--14-------------------------------|
G|-12b trill 16--------------14---------14-------------------------------|
D|-----------------------------------------------------------------------|
A|-----------------------------------------------------------------------|
E|-----------------------------------------------------------------------|


    On the tab for E (look beside each set of 6 lines) where it says 9/12/15-14-12-9
    use your index finger to flick the string on each note.Also where it says 12b 
    trill 16, hit 12 with the pick then bend up with fretting hand and trill with index
    finger of picking hand.    

Added On December 4th, 2013

SHARE

Comments

blog comments powered by Disqus

ADVERTISEMENT