AFI Tabs

Heart Stops

1 versions

TAB

            -------------------------------------------------------------------------------
                             Heart Stops - AFI
-------------------------------------------------------------------------------
Tabbed by:CabiKJS0925
E-mail:cesarxalbertyz253@hotmail.com

Tuning:Standard 

This song is from AFI's new album "Burials". This song is pretty awesome. 

Guitar starts immediately. 

Intro

e|------------------------------------|
B|------------------------------------|
G|------------------------------------|
D|------------------------------------|
A|------------------------------------| 
E|-5-5-5-5-5-5-5\4-2-2-2-0-0-0-0-0----|  
                                         
e|------------------------------------|   
B|------------------------------------|  
G|------------------------------------| 
D|------------------------------------|
A|------------------------------------|
E|-5-5-5-5-5-5-5\4-2-2-2-4-4-4-4-4----|

Verse 1

e|------------------------------------|
B|------------------------------------|
G|------------------------------------|
D|------------------------------------|\
A|------------------------------------| \
E|-5-5-5-5-5-5-5-5-2-2-2-0-0-0-0-0----|  \
                                          \ Play it 2 times.
e|------------------------------------|   /
B|------------------------------------|  /
G|------------------------------------| /
D|------------------------------------|/
A|------------------------------------|
E|-5-5-5-5-5-5-5-5-2-2-2-4-4-4-4-4----|

Post-Verse

e|----------------------------------------|
B|----------------------------------------|
G|--7--6-6-----------7--6-6-9-9-6-6-------|
D|---------7-7----------------------7-----|
A|-------------7-7------------------------|
E|----------------------------------------|


Verse 2

e|------------------------------------|
B|------------------------------------|
G|------------------------------------|
D|------------------------------------|\
A|------------------------------------| \
E|-5-5-5-5-5-5-5-5-2-2-2-0-0-0-0-0----|  \
                                          \ Play it 2 times. 
e|------------------------------------|   /
B|------------------------------------|  /
G|------------------------------------| /
D|------------------------------------|/
A|------------------------------------|
E|-5-5-5-5-5-5-5-5-2-2-2-4-4-4-4-4----|

Chorus 

e|---------------------------------------------------|
B|---------------------------------------------------|    
G|--14-14-14\11-11-11/13-13-13\9-9-9\7-7-7-7---------|      
D|---x-x--x-- x--x--x--x--x--x-x-x-x-x-x-x-x---------|\       
A|--12-12-12\-9--9--9/11-11-11\7-7-7\5-5-5-5---------| \       
E|---------------------------------------------------|  \ 
                                                         Play it 2 times. 
e|---------------------------------------------------|  /
B|---------------------------------------------------| / 
G|--14-14-14/19-19-19\18-18-18\13-13-13\10-10-10-10--|/
D|---x--x--x--x--x--x--x--x--x--x--x--x--x--x--x--x--|
A|--12-12-12/17-17-17\16-16-16\11-11-11\-8--8--8--8--|
E|---------------------------------------------------|

Verse 3

e|-----------------------------------|
B|-----------------------------------|
G|-----------------------------------|
D|-----------------------------------|\
A|-----------------------------------| \
E|-5-5-5-5-5-5-5-5-2-2-2-0-0-0-0-0---|  \
                                         \ Play it 2 times. 
e|-----------------------------------|   /
B|-----------------------------------|  /
G|-----------------------------------| /
D|-----------------------------------|/
A|-----------------------------------|
E|-5-5-5-5-5-5-5-5-2-2-2-4-4-4-4-4---|

Post-Verse

e|----------------------------------------|
B|----------------------------------------|
G|--7--6-6-----------7--6-6-9-9-6-6-------|
D|---------7-7----------------------7-----|
A|-------------7-7------------------------|
E|----------------------------------------|

Chorus 2

e|--------------------------------------------------|
B|--------------------------------------------------|    
G|--14-14-14\11-11-11/13-13-13\9-9-9\7-7-7-7--------|      
D|---x-x--x-- x--x--x--x--x--x-x-x-x-x-x-x-x--------|       
A|--12-12-12\-9--9--9/11-11-11\7-7-7\5-5-5-5--------|        
E|--------------------------------------------------|   
                                                       
e|---------------------------------------------------| 
B|---------------------------------------------------|
G|--14-14-14/19-19-19\18-18-18\13-13-13\10-10-10-10--|
D|---x--x--x--x--x--x--x--x--x--x--x--x--x--x--x--x--|
A|--12-12-12/17-17-17\16-16-16\11-11-11\-8--8--8--8--|
E|---------------------------------------------------|

e|--------------------------------------------------|
B|--------------------------------------------------|    
G|--14-14-14\11-11-11/13-13-13\9-9-9\7-7-7-7--------|      
D|---x-x--x-- x--x--x--x--x--x-x-x-x-x-x-x-x--------|       
A|--12-12-12\-9--9--9/11-11-11\7-7-7\5-5-5-5--------|        
E|--------------------------------------------------|   
                                                       
e|---------------------------------------------------| 
B|---------------------------------------------------|
G|--14-14-14/19-19-19\18-18-18\13-13-13\14-10-10-10--|
D|---x--x--x--x--x--x--x--x--x--x--x--x--x--x--x--x--|
A|--12-12-12/17-17-17\16-16-16\11-11-11\12-12-12-12--|
E|---------------------------------------------------|


Bridge

e|------------------------------------|
B|------------------------------------|
G|------------------------------------|
D|------------------------------------|\
A|------------------------------------| \
E|-5-5-5-5-5-5-5-5-2-2-2-0-0-0-0-0----|  \
                                          \ Play it 2 times. 
e|------------------------------------|   /
B|------------------------------------|  /
G|------------------------------------| /
D|------------------------------------|/
A|------------------------------------|
E|-5-5-5-5-5-5-5-5-2-2-2-4-4-4-4-4----|

Chorus 3

e|--------------------------------------------------|
B|--------------------------------------------------|    
G|--14-14-14\11-11-11/13-13-13\9-9-9\7-7-7-7--------|\      
D|---x-x--x-- x--x--x--x--x--x-x-x-x-x-x-x-x--------| \      
A|--12-12-12\-9--9--9/11-11-11\7-7-7\5-5-5-5--------|  \      
E|--------------------------------------------------|   \ Play it 2 times
                                                        /
e|---------------------------------------------------| /
B|---------------------------------------------------|/
G|--14-14-14/19-19-19\18-18-18\13-13-13\10-10-10-10--|
D|---x--x--x--x--x--x--x--x--x--x--x--x--x--x--x--x--|
A|--12-12-12/17-17-17\16-16-16\11-11-11\-8--8--8--8--|
E|---------------------------------------------------|

Solo

e|----------------------------------------|
B|-12-10-12-14-12-10-12-14-15~~-14-12-10--|
G|----------------------------------------|
D|----------------------------------------|
A|----------------------------------------|
E|----------------------------------------|

e|--------------------------------|
B|--10--9--10-12-10~-9-10-12-12~--|
G|--------------------------------|  I'm not very sure about this part, but sounds good for me, 
D|--------------------------------|  just try to figure it out.
A|--------------------------------|
E|--------------------------------|

Last Chorus 

e|--------------------------------------------------|
B|--------------------------------------------------|    
G|--14-14-14\11-11-11/13-13-13\9-9-9\7-7-7-7--------|      
D|---x-x--x-- x--x--x--x--x--x-x-x-x-x-x-x-x--------|       
A|--12-12-12\-9--9--9/11-11-11\7-7-7\5-5-5-5--------|        
E|--------------------------------------------------|   
                                                        
e|-----------------------------------------------------------------------------| 
B|-----------------------------------------------------------------------------|
G|--14-14-14/19-19-19\18-18-18\13-13-13\10-10-10-10-10-10-10-10-10-10-10-10----|
D|---x--x--x--x--x--x--x--x--x--x--x--x--x--x--x--x--x--x--x--x--x--x--x--x----|
A|--12-12-12/17-17-17\16-16-16\11-11-11\-8--8--8--8--8--8--8--8--8--8--8--8----|
E|-----------------------------------------------------------------------------|


************************************

| /   slide up
| \   slide down
| ~   vibrato

************************************

Well, that's all. It's my first guitar tab and my first tab made by ear. I think it's 90% correct,
only I'm not sure of the last bit of the solo.

Suggestions or corrections are welcome :)

Enjoy your learning ;)    

Added On May 28th, 2014

SHARE

Comments

blog comments powered by Disqus

ADVERTISEMENT