AFI Tabs

It Was Mine

1 versions

TAB

            It was Mine By AFI Off Crash Love
:)

[----------------------------------]
[----------------------------------]
[---11-----------9--------13--14-13] x6 
[------12----------12-----x---x--x-]
[14-------14--12------12--11--12-11]
[-------------------------0---0--0-]

[---------------------]
[---------------------]
[13------9---11-12--14]
[x-------x---x---x---x]
[11------7---9--10--12]
[0-------0------------]


The Chorus
Is Really Only 5 Bars

Play C-G-D On The 2nd Time,Play C-G-D-A  Then On The 3rd Time, 
Play C-G-D-E-A

Then That One Part
I Don't Know Then Yea Thats It I Guess    

Added On December 16th, 2013

SHARE

Comments

blog comments powered by Disqus

ADVERTISEMENT