Against All Authority Tabs

Sk8 Rock

1 versions

TAB

            SK8 ROCK
Against All Authority


~ = let ring

  verse
e|---------------------------------------------------------------------------------|
B|---------------------------------------------------------------------------------|
G|---------------------------------------------------------------------------------|
D|-22222-7-6-4--22222-7-6-4-22222-77777-99999--------------------------------------|
A|-22222-7-6-4--22222-7-6-4-22222-77777-99999--------------------------------------|
E|-00000-5-4-2--00000-5-4-2-00000-55555-77777--------------------------------------|

  chorus
e|---------------------------------------------------------------------------|
B|---------------------------------------------------------------------------|
G|-666666---------------7777777---------666666---------------777777----------|
D|-666666-777777-222222-7777777-777777--666666-777777-222222-777777-7-7-7-7--|
A|-444444-777777-222222-5555555-777777--444444-777777-222222-555555-7-7-7-7--|
E|--------555555-000000---------555555---------555555-000000--------5-5-5-5--|

  ska part--find the ska rythm yourself
e|------7--------5-----------------------------------------------------------|
B|------7--------5-----------------------------------------------------------|
G|------8--------6-----------------------------------------------------------|
D|------9--------7-----------------------------------------------------------|
A|------9--------7-----------------------------------------------------------|
E|------7--------5-----------------------------------------------------------|

  End
e|---------------------------------------------------------------------------------|
B|---------------------------------------------------------------------------------|
G|---------------------------------------------------------------------------------|
D|-22222-7-6-4--22222-7-6-4-22222-77777-99999----2~~-------------------------------|
A|-22222-7-6-4--22222-7-6-4-22222-77777-99999----2~~-------------------------------|
E|-00000-5-4-2--00000-5-4-2-00000-55555-77777----0~~-------------------------------|    

Added On December 16th, 2013

SHARE

Comments

blog comments powered by Disqus

ADVERTISEMENT