Aiden Tabs

One Love

4 versions

TAB

            Aiden - One Love
Conviction

Tabbed by :HeroElement
Standard Tuning




  Intro & Verse 
  Guitar 1 :Clean w/ Delay
e|---------------------|-------------------------|
B|---------------------|-------------------------|
G|----5----------4-----|----5----------4----4-5--|
D|--7----7-----7----7--|--7----7-----7----7------|
A|---------------------|-------------------------|
E|---------------------|-------------------------|




  Chorus 1
  Guitar 1 :Dist. w/ Delay
e|--------------------------|-----------------------------|
B|------------------8--8----|-----------------------------|
G|----10--10-9-----9--------|----10--10-9-----------------| x2
D|--7-----------7-------10--|--7----------7--9-7-9-10-10--|
A|--------------------------|-----------------------------|
E|--------------------------|-----------------------------|
 

e|--------------------------|-----------------------------|
B|------------------8--8----|-----------------------------|
G|----10--10-9-----9--------|--9--------------------------| 
D|--7-----------7-------10--|--7--------------------------|
A|--------------------------|-----------------------------|
E|--------------------------|-----------------------------|
 |
 |
 |
 |
 |
 |Chorus 
 |Guitar 2 :Distortion
e|--------------|---------------|-------------|--------------|
B|--------------|---------------|-------------|--------------|
G|-5--5--5-5-5--|--7--7--7-7-7--|-9--9--9-9-9-|--7--7--7-7-7-| x2
D|-5--5--5-5-5--|--7--7--7-7-7--|-9--9--9-9-9-|--7--7--7-7-7-| 
A|-3--3--3-3-3--|--5--5--5-5-5--|-7--7--7-7-7-|--5--5--5-5-5-|
E|--------------|---------------|-------------|--------------|

e|--------------|---------------|-------------|--------------|
B|--------------|---------------|-------------|--------------|
G|-5--5--5-5-5--|--7--7--7-7-7--|-9-----------|--------------| 
D|-5--5--5-5-5--|--7--7--7-7-7--|-9-----------|--------------| 
A|-3--3--3-3-3--|--5--5--5-5-5--|-7-----------|--------------|
E|--------------|---------------|-------------|--------------|






Verse 2





  Chorus 2
  Guitar 1 :Dist. w/ Delay
e|--------------------------|-----------------------------|
B|------------------8--8----|-----------------------------|
G|----10--10-9-----9--------|----10--10-9-----------------| x3
D|--7-----------7-------10--|--7----------7--9-7-9-10-10--|
A|--------------------------|-----------------------------|
E|--------------------------|-----------------------------|
 

e|--------------------------|-----------------------------|
B|------------------8--8----|-----------------------------|
G|----10--10-9-----9--------|------9-10--9------9-9-------| 
D|--7-----------7-------10--|--7------------7---------7---|
A|--------------------------|-----------------------------|
E|--------------------------|-----------------------------|
 |
 |
 |
 |
 |
 |Chorus 
 |Guitar 2 :Distortion
e|--------------|---------------|-------------|--------------|
B|--------------|---------------|-------------|--------------|
G|-5--5--5-5-5--|--7--7--7-7-7--|-9--9--9-9-9-|--7--7--7-7-7-| x3
D|-5--5--5-5-5--|--7--7--7-7-7--|-9--9--9-9-9-|--7--7--7-7-7-| 
A|-3--3--3-3-3--|--5--5--5-5-5--|-7--7--7-7-7-|--5--5--5-5-5-|
E|--------------|---------------|-------------|--------------|

e|--------------|---------------|-------------|--------------|
B|--------------|---------------|-------------|--------------|
G|-5--5--5-5-5--|--7--7--7-7-7--|-9-----------|--------------| 
D|-5--5--5-5-5--|--7--7--7-7-7--|-9-----------|--------------| 
A|-3--3--3-3-3--|--5--5--5-5-5--|-7-----------|--------------|
E|--------------|---------------|-------------|--------------|









Bridge
Guitar 2 : Distortion w/ Effect
e|-------------|---------------|------------|------------|
B|-------------|---------------|------------|------------|
G|-------------|---------------|------------|------------|
D|-------------|---------------|------------|------------|
A|--15--14-----|-14-15---14-15-|-15--14-----|-12--10-----|
E|-------------|---------------|------------|------------|


e|-------------|---------------|------------|------------|
B|-------------|---------------|------------|------------|
G|-------------|---------------|------------|------------|
D|-------------|---------------|------------|------------|
A|--15--14-----|-14-15---14-15-|-15--14-----|-20--19-----|
E|-------------|---------------|------------|------------|






Verse 3


Chorus 3







  Outro 
  Guitar 1 :Dist. w/ Delay
e|--------------------------|-----------------------------|
B|------------------8--8----|-----------------------------|
G|----10--10-9-----9--------|----10--10-9-----------------| 
D|--7-----------7-------10--|--7----------7--9-7-9-10-10--|
A|--------------------------|-----------------------------|
E|--------------------------|-----------------------------|

 
e|--------------------------|-----------------------------|-------------|
B|------------------8--8----|-----------------------------|-------------|
G|----10--10-9-----9--------|----10--10-9-----------------|-9-----------| 
D|--7-----------7-------10--|--7----------7--9-7-9-10-10--|-7-----------|
A|--------------------------|-----------------------------|-------------|
E|--------------------------|-----------------------------|-------------|
 |
 |
 |
 |
 |
 |Chorus 
 |Guitar 2 :Distortion
e|-------------|-------------|-------------|-------------|   |----------|
B|-------------|-------------|-------------|-------------|   |----------|
G|-9--9--9--9--|-12-12-12-12-|-5--5--5--5--|-2--2--2--2--|x2 |-5--------|
D|-9--9--9--9--|-12-12-12-12-|-5--5--5--5--|-2--2--2--2--|   |-5--------|
A|-7--7--7--7--|-10-10-10-10-|-3--3--3--3--|-0--0--0--0--|   |-3--------|
E|-------------|-------------|-------------|-------------|   |----------|
 |
 |
 |
 |
 |
 |
 |Guitar 3 :Distortion
e|-------------------------|    |----------------|
B|-10-10-10-10-10-10-10-10-|    |-10-------------|
G|-------------------------| x3 |----------------|
D|-7--7--7--7--7--7--7--7--|    |-7--------------|
A|-------------------------|    |----------------|
E|-------------------------|    |----------------|



| /  slide up
| \  slide down
| h  hammer-on
| p  pull-off
| ~  vibrato
| +  harmonic
| x  Mute note
====================================================================    

Added On December 16th, 2013

SHARE

Comments

blog comments powered by Disqus

VERSIONS

ADVERTISEMENT