Aiden Tabs

The Opening Departure

1 versions

TAB

            -----------------------------------------------------------------------------
			     The Opening Departure - Aiden
-----------------------------------------------------------------------------
Tabbed by: acro_brat

Tuning:standard

intro x1
e|---------------------------------|
B|---------------------------------|
G|---------------------------------|
D|---------------------------------|
A|-3---5---7---7---3---5---7---7---|
E|-5---7---8---8---5---7---8---8---|

verse x2
e|---------------------------------|
B|---------------------------------|
G|---------------------------------|
D|---------------------------------|
A|-3---5---7---7---3---5---7---7---|
E|-5---7---8---8---5---7---8---8---|  

Iterlude x1
e|---------|
B|---------|
G|---------|
D|---------|
A|-5---5---|
E|-7---7---|

verse x2
e|---------------------------------|
B|---------------------------------|
G|---------------------------------|
D|---------------------------------|
A|-3---5---7---7---3---5---7---7---|
E|-5---7---8---8---5---7---8---8---|  

outro x1
e|---------------------------------|
B|---------------------------------|
G|---------------------------------|
D|---------------------------------|
A|-3---5---7---7---3---5---7---7---|
E|-5---7---8---8---5---7---8---8---|  



During verse 1:
x16
e|-------12-------12-------|
B|-10-13----10-13----10-13-|
G|-------------------------|
D|-------------------------|
A|-------------------------|
E|-------------------------|

During interlude:
x1
e|----12----------12----------12----------12-------|
B|-10----10-13-10----10-13-10----10-13-10----10-13-|
G|-------------------------------------------------|
D|-------------------------------------------------|
A|-------------------------------------------------|
E|-------------------------------------------------|

During verse 2:
x16
e|-------12-------12-------|
B|-10-13----10-13----10-13-|
G|-------------------------|
D|-------------------------|
A|-------------------------|
E|-------------------------|

During Outro
x8
e|-------12-------12-------|
B|-10-13----10-13----10-13-|
G|-------------------------|
D|-------------------------|
A|-------------------------|
E|-------------------------|



| /  slide up
| \  slide down
| h  hammer-on
| p  pull-off
| ~  vibrato
| +  harmonic
| x  Mute note
=============================================================================    

Added On December 16th, 2013

SHARE

Comments

blog comments powered by Disqus

ADVERTISEMENT