Airbourne Tabs

Cheap Wine Cheaper Women

1 versions

TAB

            Cheap Wine & Cheaper Women - Airbourne
Tabbed by: soulflyV
Email: nuke-the-emos@hotmail.com - for contributions/corrections


    Main/Chorus Riff
e|---------------------------------------------------------------|
B|-------------------------------3-------------------------------|
G|-------------------------------2--2----------------------------|
D|---------0------2---0h2-0--0---0--2----------------------------|
A|-2--0h2-----0h2-----------2-------0----------------------------|
E|-0-------------------------------------------------------------|


Part After Solo
e|---------------------------------------7----7/15-12~~-14-15~~--14-15-14~-|
B|--------------------------------8------8---------------------------------|
G|--------------------------------7h9--9---9-------------------------------|
D|------------------------------7------------------------------------------|
A|--7~~--7-9-10---9h10-9~--9-10--------------------------------------------|
E|-------------------------------------------------------------------------|

e|--14-15-17~~--15--------------------------------------------------------|
B|-----------------17~~~--------------------------------------------------|
G|------------------------------------------------------------------------|
D|------------------------------------------------------------------------|
A|------------------------------------------------------------------------|
E|------------------------------------------------------------------------|


| /  slide up
| \  slide down
| h  hammer-on
| p  pull-off
| ~  vibrato
| +  harmonic
| x  Mute note
===============================================================================    

Added On December 16th, 2013

SHARE

Comments

blog comments powered by Disqus

ADVERTISEMENT