Airbourne Tabs

Too Much Too Young Too Fast Solo

1 versions

TAB

            too much too young too fast by airbourne

solo

E|------5------------------------------------------17----------------------------|
B|----5---8-5---5---5-8-5---5---5-8-5-8-8-8-----17----17-20-20-20-17-17----------|
G|--7---------7---7-------7---7--------------19----------------------------------|
D|-------------------------------------------------------------------------------|
A|-------------------------------------------------------------------------------|
E|-------------------------------------------------------------------------------|

E|-------------------------------------17----------------------------17----------|
B|-------------------17-------------17----20-17----17-20-17----17--x-20-20-------|
G|--19-17------------17----------19-------------19----------19---x---------------|
D|-------19-17----------19-27-19-------------------------------------------------|
A|-------------19-19-------------------------------------------------------------|
E|-------------------------------------------------------------------------15/---|

E|--------------------------------------------------------------12---------------|
B|-----------------------------------------------------------12----15-12----12-15|
G|-----------------------------------------------12----12-14-------------14------|
D|-----------------------------------------------12-14---------------------------|
A|--7-5-7-5-7-7-5-4-5-4-5-4-5-4-5-------------14---------------------------------|
E|--------------------------------3-4-5-5-3-2------------------------------------|

E|----------------------------3-3---------------------------------------------|
B|----------------------------3-3----3-3----3---------------------------------|
G|--9~9----7-7----7-7----2----0-0----2-2----2----0----2---2---2---------------|
D|--7-7----5-5----4-4----2----0-0----0-0----0----0----2---2---2---------------|
A|--0~0~---0-0----0-0----0-----------0-0----0---------0---0---0---------------|
E|----------------------------3-3----------------3----------------------------|

E|--------------------3-3---------------------------------------------------------|
B|--------------3-----3-3--3-3--3-------------------------------------------------|
G|--9~9----7-7--2--2--0-0--2-2--2--0--2-2-2---------------------------------------|
D|--7-7----5-5--0--2--0-0--0-0--0--0--2-2-2--5-5-5-5-5-5-5--7--7-7-7-7-7-7-7-7-7--|
A|--0~0~---0-0--0--0------------0-----0-0-0--3-3-3-3-3-3-3--4--5-5-5-5-5-5-5-5-5--|
E|--------------------3-3----------3----------------------------------------------|

E|-----------------------------------3-3-------------------------------------|
B|-------------------------3-3-3-----3-3---3-3--3----------------------------|
G|-------------9-9-9-9--7--2-2-2--2--0-0---2-2--2--0--2-2-2------------------|
D|--9--12—12/--7-7-7-7--5--0-0-0--2--0-0---0-0--0--0--2-2-2------------------|
A|--7--10—10/---------------------0-------------0-----0-0-0------------------|
E|-----------------------------------3-3-----------3-------------------------|

E|---------------------------------------------------------------------------|
B|--10-10-10-10--8--8-8-8--7-7--8--10--10--8--8--7------7-7-5----------------|
G|--12-----------10--------9----10-12------10----9--9-5-7-7-5----------------|
D|------------------------------------------------------------7--7-5-7-------|
A|---------------------------------------------------------------------------|
E|---------------------------------------------------------------------------|

E|--17-17----15-15----15-14-14----------17-----15-14-14-14/------------------|
B|--------20-------19----------17-18-20--------18----17-17/----7-7-5---------|
G|-----------------------------------------0-0-------------5-7-7-7-5---------|
D|-----------------------------------------0-0-------------------------------|
A|---------------------------------------------------------------------------|
E|---------------------------------------------------------------------------|

E|---------------------------------------------------------------------------|
B|---------------------------------------------------------------------------|
G|---------------------------------------------------------------------------|
D|--7-7-5--------------------------------------------------------------------|
A|--------7-6-5-3-0----------------------------------------------------------|
E|---------------------------------------------------------------------------|

the end    

Added On December 16th, 2013

SHARE

Comments

blog comments powered by Disqus

ADVERTISEMENT