Akira Yamaoka Tabs

Your Rain

3 versions

TAB

            Your Rain Tab by Akira Yamaoka


Title: Your Rain
Artist: Akira Yamaoka, Mary Elizabeth McGlynn
Album: SILENT HILL 4 THE ROOM ORIGINAL SOUNDTRACKS (DISC 1)

Transcribed by: Wilson Chow Wai Soon - ordostisme@yahoo.com

Tuning: Standard

Chords Reference
C#sus4/5+ - xxx67(4&5)
Bm	  - xx977(7&8)
E         - x231xx
D         - xxx121
F#m       - xx4222
C#m       - x46654
E         - xx21xx
Fadd9+/5+ - xx5556


  C#sus4/5+                 Bm
e|-5--4-|--5--|---4-|--5--||----7-|---9------|-----|
B|--6---|---7-|--7--|---7-||---7--|--7-----7-|-----|
G|---7--|-6---|-6---|-6---||--7---|-7-----7--|--7--|
D|------|-----|-----|-----||-9----|----------|-9-9-|
A|------|-----|-----|-----||------|----------|-----|
E|------|-----|-----|-----||------|----------|-----|
                                                    x2
C#m                  E
Dancing alone again, again the rain falling
Only the scent of you remains to dance with me
Nobody showed me how to return the Love you give to me
Mom never holds me, Dad loves a stranger more than me
  C#sus4/5+                 Bm
e|-5--4-|--5--|---4-|--5--||----7-|---9------|------|
B|--6---|---7-|--7--|---7-||---7--|--7-----7-|------|
G|---7--|-6---|-6---|-6---||--7---|-7-----7--|-7-7--|
D|------|-----|-----|-----||-7----|----------|----9-|
A|------|-----|-----|-----||------|----------|------|
E|------|-----|-----|-----||------|----------|------|
                                                    x4
E                 D
I never wanted to ever bring you down
All that I need are some simple loving words
  E                      D
e|----0-|--0---0-|-----||----2-|-----|---2-|-----|
B|---0--|---0----|-----||---3--|-3---|--3--|-3---|
G|--1---|-1---1--|--1--||--2---|--2--|-2---|--2--|
D|-2----|----2---|-2-2-||-0----|---0-|-----|---0-|
A|------|--------|-----||------|-----|-----|-----|
E|------|--------|-----||------|-----|-----|-----|
                                                 x2
C#m                          E
You touched my body once, it burns me still softly
Never forgets, never again will be, I cry
  C#sus4/5+                 Bm
e|-5--4-|--5--|---4-|--5--||----7-|---9------|------|
B|--6---|---7-|--7--|---7-||---7--|--7-----7-|------|
G|---7--|-6---|-6---|-6---||--7---|-7-----7--|-7-7--|
D|------|-----|-----|-----||-7----|----------|----9-|
A|------|-----|-----|-----||------|----------|------|
E|------|-----|-----|-----||------|----------|------|
                                                    x2
E                  D
Out of my head and I don't know what I found
Over and over I feel it break me down
  E                      D
e|----0-|--0---0-|-----||----2-|-----|---2-|-----|
B|---0--|---0----|-----||---3--|-3---|--3--|-3---|
G|--1---|-1---1--|--1--||--2---|--2--|-2---|--2--|
D|-2----|----2---|-2-2-||-0----|---0-|-----|---0-|
A|------|--------|-----||------|-----|-----|-----|
E|------|--------|-----||------|-----|-----|-----|
                                                 x2

F#m, C#m, E, Fadd9+5/5+
                                                 x2

F#m E Bm Fadd9+5/5+

On the sidewalk of the city are my screams just a whisper
Busy people going nowhere see me soak in the rain
No compassion, nothing matters, my resistence is waning
Like a flower in the basement waiting for a lonely death

e|---------|-------------7-|-------|-----------|
B|-7-7-7-9-|-10-9-10-9-10--|-7-7-9-|--7-10-9-9-|
G|--6-6----|---------------|--6----|-6------6--|
D|---------|---------------|-------|-----------|
A|---------|---------------|-------|-----------|
E|---------|---------------|-------|-----------|
                                               x2

Any comments to make, please send it to ordostisme@yahoo.com    

Added On December 4th, 2013

SHARE

Comments

blog comments powered by Disqus

VERSIONS

ADVERTISEMENT