Alanis Morissette Tabs

Mary Jane

1 versions

TAB

            Mary Jane Tab by Alanis Morissette


Intro/Verse:
------------

  D                           Dsus2/G (written Ds/G ->easier!)
e:------2--------2------------------0--------0----------|---|
B:---------3--------3-----2------------3--------3-----3-|---|
G:---2--------2--------2---------2--------2--------2----|x8-|
D:0-----------------------------------------------------|---|
A:------------------------------------------------------|---|
E:----------------------------3-------------------------|---|
                              Thumb

Verse 1:
--------
D		 	Ds/G  	 	 D    Ds/G
What's ..,
	D			  Ds/G	      D		Ds/G
As ...
    D			     Ds/G	   D	  Ds/G
You ...
     D			  Ds/G	     D	   Ds/G
You .....


Chorus:
-------
   Cadd9             G/B                 D                Dsus4
e:----------3-----------------3--------|----------2-------3-2------|
B:------3-----3---3-------3-----3---3--|------3-----3---3-----3---3|
G:----0---0-----0-------0---0-----0----|----2---2-----2---------2--|
D:-------------------------------------|-0-------------------------|
A:-3-----------------2-----------------|---------------------------|
E:-------------------------------------|---------------------------|
   loooong..
well ..

    Bb               Cadd9             D                Dsus4
e:---------------------------3-------|---------2--------3--2------|
B:----------3------------3-----3---3-|-----3-----3---3---------3--|
G:------3-----3---3----0---0-----0---|---2---2-----2---------2----|
D:----0---0-----0--------------------|-0--------------------------|
A:--1----------------3---------------|----------------------------|
E:-----------------------------------|----------------------------|
    rooo	     ..
on ..

  Cadd9           G/B             G/Bb            D/A
e:--------3---------------3---------------3---------------2------|
B:----3-----3---3-----3-----3---3-----3-----3---3-----3-----3---3|
G:--0---0-----0-----0---0-----0-----0---0-----0-----2---2-----2--|
D:---------------------------------------------------------------|
A:3---------------2---------------1---------------0--------------|
E:---------------------------------------------------------------|
  laaaast	  ..
The 

     Em7                         Asus4                A  (rest)
e:--------------------------|--|-----------------------------|
B:---------------3----------|--|-------------3--------2------|
G:---------0--------0-----0-|--|-------2--------2--------2---|
D:------2-----2--------2----|x2|----2-----2--------2--------2|
A:----------------2---------|--|-0---------------------------|
E:---0----------------------|--|-----------------------------|
went ....
       Cadd9 G/B D  Ds		 Bb    Cadd9 D   Dsus4  D
It's ...
    Cadd9  G/B      G/Bb  D/A
The ..
	     Em7		 Asus4     A (rest)
	Went ...

Verse 2:
--------

Chorus 2:
---------

Verse 3:
--------
Please ..
Please..

Oooooooho, ooooooohooo  (pretty similar to A
Em7	022030
Asus4	002230
A	002220    

Added On December 4th, 2013

SHARE

Comments

blog comments powered by Disqus

ADVERTISEMENT