Alesana Tabs

Congratulations I Hate You

5 versions

TAB

            Congratulations I Hate You Tab by Alesana


ALESANA - CONGRATULATIONS, I HATE YOU

THIS TAB IS FOR THE FIRST VERSION OF THE SONG,  DROP D# AND PLAY IT ^_^

INTRO
|-----------------------------------------------|
|-----------------------------7----------6------|
|------6---------6----------6----------6--------|
|-----------------------------------------------|
|--9---------8----------9----------8------------|
|----9---------8----------9----------8----------|

|--------------------------------------|
|------------------7-----------6-------|
|--------------------------------------|
|--9-----8------9----------8-----------|
|--9-----8------9----------8-----------|
|--7-----6------7----------6-----------|

NO ONE EVER SAID...
|------------------------------------------------------------|
|--9-7---7-9-7---9-7---7-9-7---9-7---7-9-7---9-7---7-9-7-----|
|--------------6-------------6-------------6-------------6---|
|------9-------------9-------------8-------------8-----------|
|------------------------------------------------------------|
|------------------------------------------------------------|
                                               "I HATE YOUR PITY"
|------------------------------------------------|
|--9-7---7-9-7---9-7---7-9-7---9-7---7-9-7---9---|
|--------------6-------------6-------------6-----|
|------9-------------9-------------8-------------|
|------------------------------------------------|
|------------------------------------------------|

VERSE
TASTE YOUR VANITY ...
|--------------------------------------------------------------------------------------------------------|
|--------------------------------------------------------------------------------------------------------|
|--------------------------------------------------------------------------------------------------------|
|--9-9-9-9--9-9-9-9--9-9-9--9-9-9-9--9-9-9-9--9-9-9--8-8-8-8--8-8-8-8--8-8-8--8-8-8-8--8-8-8-8--8-8-8-8--|
|--9-9-9-9--9-9-9-9--9-9-9--9-9-9-9--9-9-9-9--9-9-9--8-8-8-8--8-8-8-8--8-8-8--8-8-8-8--8-8-8-8--8-8-8-8--|
|--7-7-7-7--7-7-7-7--7-7-7--7-7-7-7--7-7-7-7--7-7-7--6-6-6-6--6-6-6-6--6-6-6--6-6-6-6--6-6-6-6--6-6-6-6--|
   . .      . .      . .    . .      . .      .      . .      . .      .       . .      . .      . . . .

I WATCH YO STEAL....
|--------------------------------------------------------------------|
|--7-9-7---9-7---7-9-7---9-7---7-9-7---9-7---7-9-7---9-7---7-9-7-----|
|--------6-------------6-------------6-------------6-------------6---|
|--------------9-------------9-------------8-------------8-----------|
|--------------------------------------------------------------------|
|--------------------------------------------------------------------|

|-------------------------------------|
|--7-------7-------7-------7----------|
|----10------10------10------10-------|
|-------8-------8-------8-------8-----|
|-------------------------------------|
|-------------------------------------|

AS YOU BUILD YOUR .... (GUITAR CLEAN)                                       SWALLOW YOUR PRIDE!
|-----------------------------------------------------------------------------------------|
|--------------------------------------------------6-7-9-6-7-9-6-7-9-6-7-9-6-7-9-7-6-7-9--|
|-----------------------------------------------------------------------------------------|
|--9-9-9-9-9-9-9-9-8-8-8-8-8-8-8-8-3-3-3-3-3-3-3-3----------------------------------------|
|--9-9-9-9-9-9-9-9-8-8-8-8-8-8-8-8-3-3-3-3-3-3-3-3----------------------------------------|
|--7-7-7-7-7-7-7-7-6-6-6-6-6-6-6-6--------------------------------------------------------|
                                                                            . . . . . . .

CHORUS
BEG MEEEEEE.....
|---------------------------------------------9------|
|--7-9-7-6-7--7-9-7-6-6-7--7-9-7-6-7--7-9-7-6---7----|
|----------------------------------------------------|
|----------------------------------------------------|
|----------------------------------------------------|
|----------------------------------------------------|

|----------------------------------------------------|
|--7-9-7-6-7--7-9-7-6-6-7--7-9-7-6-7--6-7-9-7-6-7-9--|
|----------------------------------------------------|
|----------------------------------------------------|
|----------------------------------------------------|
|----------------------------------------------------|
                                      . . . . . . .

SUFFER ALONE .....
|----------------------------------------------------|
|----------------------------------------------------|
|--8----------------------------8-8-8-8---6-6-6-6----|
|--8--------9-9-9-9---8-8-8-8---8-8-8-8---6-6-6-6----|
|--6--------9-9-9-9---8-8-8-8---6-6-6-6---4-4-4-4----|
|-----------7-7-7-7---6-6-6-6------------------------|
            . . . .   . . . .   . . . .   . . . .

|----0-14-0-13-0-11-0---|       |-----------------|
|--9--------------------|       |--6-7-9-7-6-7-9--|
|-----------------------|       |-----------------|
|-----------------------| [x7]  |-----------------|
|-----------------------|       |-----------------|
|-----------------------|       |-----------------|
                                   . . . . . . .

CHORUS
BEG MEEEEE...
|---------------------------------------------9------|
|--7-9-7-6-7--7-9-7-6-6-7--7-9-7-6-7--7-9-7-6---7----|
|----------------------------------------------------|
|----------------------------------------------------| [x2]
|----------------------------------------------------|
|----------------------------------------------------|

|----0-14-0-13-0-11-0---|       |-----------------|
|--9--------------------|       |--6-7-9-7-6-7-9--|
|-----------------------|       |-----------------|
|-----------------------| [x7]  |-----------------|
|-----------------------|       |-----------------|
|-----------------------|       |-----------------|
                                   . . . . . . .
BRIDGE
          "MY"
|-----------------|
|-----------------|
|--8---------8----|
|--8---------8----|
|--6---------6----|
|-----------------|

|-------------------------------------------------------------|      |-----------|
|-------------------------------------------------------------|      |-----------|
|--6-4-4-3----8-8-8-8---8-8-8-8-8-8--8-8-8-8-8-8--8-8-8--8----|      |--6-4-4-3--|
|--6-4-4-3----8-8-8-8---8-8-8-8-8-8--8-8-8-8-8-8--8-8-8--8----| [x4] |--6-4-4-3--|
|--4-2-2-1----6-6-6-6---6-6-6-6-6-6--6-6-6-6-6-6--6-6-6--6----|      |--4-2-2-1--|
|-------------------------------------------------------------|      |-----------|
              . . .     . . . . .    . . . . .    . . .

AS YOU BUILD YOUR .... (GUITAR CLEAN)                                       SWALLOW YOUR PRIDE!
|-----------------------------------------------------------------------------------------|
|--------------------------------------------------6-7-9-6-7-9-6-7-9-6-7-9-6-7-9-7-6-7-9--|
|-----------------------------------------------------------------------------------------|
|--9-9-9-9-9-9-9-9-8-8-8-8-8-8-8-8-3-3-3-3-3-3-3-3----------------------------------------|
|--9-9-9-9-9-9-9-9-8-8-8-8-8-8-8-8-3-3-3-3-3-3-3-3----------------------------------------|
|--7-7-7-7-7-7-7-7-6-6-6-6-6-6-6-6--------------------------------------------------------|
                                                                            . . . . . . .

CHORUS
BEG MEEEEE...
|---------------------------------------------9------|
|--7-9-7-6-7--7-9-7-6-6-7--7-9-7-6-7--7-9-7-6---7----|
|----------------------------------------------------|
|----------------------------------------------------| [x2]
|----------------------------------------------------|
|----------------------------------------------------|

                                  "EYES"
|----0-14-0-13-0-11-0---|       |--------|
|--9--------------------|       |--------|
|-----------------------|       |---8----|
|-----------------------| [x8]  |---8----|
|-----------------------|       |---6----|
|-----------------------|       |--------|


YEAHH I HOPE THE TAB IS FINE, CHECK OUT HOW IT SOUNDS

http://www.youtube.com/watch?v=Ao0y6wlG9sM

FREAKY WI ^_^!!!!    

Added On December 4th, 2013

SHARE

Comments

blog comments powered by Disqus