Alesana Tabs

Early Mourning

3 versions

TAB

            ALESANA - EARLY MOURNING

OK OK GUYS, THE CHORDS ARE FROM THE NEW VERSION OF THIS SONG, AND THIS IS HOW ALESANA 
THE SONG AT LIVE, SO HERE IS THE TAB DROP D AND ENJOY IT ^^

INTRO
|-----------------------------------------------------------------|
|-----------------------------------------------------------------|
|---------------------------------------------------------5-------|
|-5-5-5-5-5-5-5-5-5-2-2-2-2-2-2-2-2-2-7-7-7-7-7-7-7-7-7---5-------|
|-5-5-5-5-5-5-5-5-5-2-2-2-2-2-2-2-2-2-7-7-7-7-7-7-7-7-7---3-------|
|-3-3-3-3-3-3-3-3-3-0-0-0-0-0-0-0-0-0-5-5-5-5-5-5-5-5-5-----------|

VERSE
      LAST NIGHT... HOW THE SOUND     OF YOUR VOICE...    SWEET
|--------------------------------------------------------------------------|
|--------------------------------------------------------------------------|
|-------------------------------------------------------5-5-5-5-5-5-5-5-5--|
|-5-5-5-5-5-5-5-5-5-2-2-2-2-2-2-2-2-2-7-7-7-7-7-7-7-7-7-5-5-5-5-5-5-5-5-5--| [x2]
|-5-5-5-5-5-5-5-5-5-2-2-2-2-2-2-2-2-2-7-7-7-7-7-7-7-7-7-3-3-3-3-3-3-3-3-3--|
|-3-3-3-3-3-3-3-3-3-0-0-0-0-0-0-0-0-0-5-5-5-5-5-5-5-5-5--------------------|

         I'M             AAAA -         LOOONEEE           TOOOOOO
|--------------------------------------------------------------------------|
|--------------------------------------------------------------------------|
|--------------------------------------------------------------------------|
|-9-9-9-9-9-9-9-9-9-7-7-7-7-7-7-7-7-7-4-4-4-4-4-4-4-4-4-5-5-5-5-5-5-5-5-5--|
|-9-9-9-9-9-9-9-9-9-7-7-7-7-7-7-7-7-7-4-4-4-4-4-4-4-4-4-5-5-5-5-5-5-5-5-5--|
|-7-7-7-7-7-7-7-7-7-5-5-5-5-5-5-5-5-5-2-2-2-2-2-2-2-2-2-3-3-3-3-3-3-3-3-3--|

         I               DON'T            STAND            WHY
|-------------------------------------------------------------------|
|-------------------------------------------------------------------|
|-------------------------------------------------------------------|
|-9-9-9-9-9-9-9-9-9-7-7-7-7-7-7-7-7-7-9-9-9-9-9-9-9-9-9----10-------|
|-9-9-9-9-9-9-9-9-9-7-7-7-7-7-7-7-7-7-9-9-9-9-9-9-9-9-9----10-------|
|-7-7-7-7-7-7-7-7-7-5-5-5-5-5-5-5-5-5-7-7-7-7-7-7-7-7-7----8--------|

CHORUS
  WHY NOT...          ONE LAST...       MY SWEET..      TONIGHT
|--------------------------------------------------------------------------|
|--------------------------------------------------------------------------|
|-------------------------------------------------------4-4-4-4-5-5-5-5-5--|
|-5-5-5-5-5-5-5-5-5-2-2-2-2-2-2-2-2-2-7-7-7-7-7-7-7-7-7-2-2-2-2-5-5-5-5-5--|
|-5-5-5-5-5-5-5-5-5-2-2-2-2-2-2-2-2-2-7-7-7-7-7-7-7-7-7-2-2-2-2-3-3-3-3-3--|
|-3-3-3-3-3-3-3-3-3-0-0-0-0-0-0-0-0-0-5-5-5-5-5-5-5-5-5--------------------|

 I HOPE..           THE STARS...       STILL SPELL         OUT YOUR NAME    WHERE YOU R
|-------------------------------------------------------------------------------------------|
|-------------------------------------------------------------------------------------------|
|-------------------------------------------------------4-4-4-4-5-5-5-5-5-4-4-4-4----5------|
|-5-5-5-5-5-5-5-5-5-2-2-2-2-2-2-2-2-2-7-7-7-7-7-7-7-7-7-2-2-2-2-5-5-5-5-5-4-4-4-4----5------|
|-5-5-5-5-5-5-5-5-5-2-2-2-2-2-2-2-2-2-7-7-7-7-7-7-7-7-7-2-2-2-2-3-3-3-3-3-2-2-2-2----3------|
|-3-3-3-3-3-3-3-3-3-0-0-0-0-0-0-0-0-0-5-5-5-5-5-5-5-5-5-------------------------------------|


VERSE
|--------------------------------------------------------------------------|
|--------------------------------------------------------------------------|
|-------------------------------------------------------5-5-5-5-5-5-5-5-5--|
|-5-5-5-5-5-5-5-5-5-2-2-2-2-2-2-2-2-2-7-7-7-7-7-7-7-7-7-5-5-5-5-5-5-5-5-5--| [x2]
|-5-5-5-5-5-5-5-5-5-2-2-2-2-2-2-2-2-2-7-7-7-7-7-7-7-7-7-3-3-3-3-3-3-3-3-3--|
|-3-3-3-3-3-3-3-3-3-0-0-0-0-0-0-0-0-0-5-5-5-5-5-5-5-5-5--------------------|

|--------------------------------------------------------------------------|
|--------------------------------------------------------------------------|
|--------------------------------------------------------------------------|
|-9-9-9-9-9-9-9-9-9-7-7-7-7-7-7-7-7-7-4-4-4-4-4-4-4-4-4-5-5-5-5-5-5-5-5-5--|
|-9-9-9-9-9-9-9-9-9-7-7-7-7-7-7-7-7-7-4-4-4-4-4-4-4-4-4-5-5-5-5-5-5-5-5-5--|
|-7-7-7-7-7-7-7-7-7-5-5-5-5-5-5-5-5-5-2-2-2-2-2-2-2-2-2-3-3-3-3-3-3-3-3-3--|

|-------------------------------------------------------------------|
|-------------------------------------------------------------------|
|-------------------------------------------------------------------|
|-9-9-9-9-9-9-9-9-9-7-7-7-7-7-7-7-7-7-9-9-9-9-9-9-9-9-9----10-------|
|-9-9-9-9-9-9-9-9-9-7-7-7-7-7-7-7-7-7-9-9-9-9-9-9-9-9-9----10-------|
|-7-7-7-7-7-7-7-7-7-5-5-5-5-5-5-5-5-5-7-7-7-7-7-7-7-7-7----8--------|

CHORUS
|--------------------------------------------------------------------------|
|--------------------------------------------------------------------------|
|-------------------------------------------------------4-4-4-4-5-5-5-5-5--|
|-5-5-5-5-5-5-5-5-5-2-2-2-2-2-2-2-2-2-7-7-7-7-7-7-7-7-7-2-2-2-2-5-5-5-5-5--|
|-5-5-5-5-5-5-5-5-5-2-2-2-2-2-2-2-2-2-7-7-7-7-7-7-7-7-7-2-2-2-2-3-3-3-3-3--|
|-3-3-3-3-3-3-3-3-3-0-0-0-0-0-0-0-0-0-5-5-5-5-5-5-5-5-5--------------------|

|-------------------------------------------------------------------------------------------|
|-------------------------------------------------------------------------------------------|
|-------------------------------------------------------4-4-4-4-5-5-5-5-5-4-4-4-4----5------|
|-5-----------------2-2-2-2-2-2-2-2-2-7-7-7-7-7-7-7-7-7-2-2-2-2-5-5-5-5-5-4-4-4-4----5------|
|-5---------5-5-5-5-2-2-2-2-2-2-2-2-2-7-7-7-7-7-7-7-7-7-2-2-2-2-3-3-3-3-3-2-2-2-2----3------|
|-3---------3-3-3-3-0-0-0-0-0-0-0-0-0-5-5-5-5-5-5-5-5-5-------------------------------------|
            . . . .

OUTHRO
|----------------------------------------------------------------|
|----------------------------------------------------------------|
|----------------------------------------------------------------|
|-5-5-5-5-5-5-5-5-5-5-5-5-5-5-5-2-2-2-2-2-2-2-2-2-2-2-2-2-2-2----|
|-5-5-5-5-5-5-5-5-5-5-5-5-5-5-5-2-2-2-2-2-2-2-2-2-2-2-2-2-2-2----|
|-3-3-3-3-3-3-3-3-3-3-3-3-3-3-3-0-0-0-0-0-0-0-0-0-0-0-0-0-0-0----|
  . . . . . . . . . . . . . . . . . . . . . . . . . . . . . .

  I CLOSE MY EYES AND U....         GOODBYE
|-----------------------------------------|
|-----------------------------------------|
|----------------------------------5------|
|-7-7-7-7-7-7-7-7-7-7-7-7-7-7-7----5------|
|-7-7-7-7-7-7-7-7-7-7-7-7-7-7-7----3------|
|-5-5-5-5-5-5-5-5-5-5-5-5-5-5-5-----------|
  . . . . . . . . . . . . . . .


AND THATS ALL GUYS HOPE ITS FINE AND KEEP ROCKIN!! ^^

THANX FREAKY WI    

Added On December 16th, 2013

SHARE

Comments

blog comments powered by Disqus

VERSIONS

ADVERTISEMENT