Alexisonfire Tabs

Drunks Lovers Sinners And Saints

2 versions

TAB

            Drunks Lovers Sinners And Saints Tab by Alexisonfire


Only thing missing is the bit of lead at the end that you can just barely hear in the background.

Tuning: dropped half step, then drop D.


Verse Part 1
|--------------------------------------------------------------------------|
|--------------------------------------------------------------------------|
|------99-9-9-111111--------------/111111111111----------------------------|
|-4-4--xx-x-x-x-x-x---9-79-79-79--/x-x-x-x-x-x---9-777-9-11-4-4-4-4-444444-|
|-4-4--77-7-7-9-9-9---9-79-79-79--/9-9-9-9-9-9---9-777-9-11-4-4-4-4-444444-|
|-4-4-----------------9-79-79-79-----------------9-777-9-11-4-4-4-4-444444-|

|-----------------------------------------9-7----7-------------------------|
|-(on second time do this)---10-7-9h10-10-----10--------between--and-------|
|--------------------------------------------------------------------99----|
|-----------------------------------------------------------4-4------xx----|
|-----------------------------------------------------------4-4------77----|
|-----------------------------------------------------------4-4------------|

Verse Part 2 (2 guitars)

Guitar 1
|--------------------------------------------------------------------------|
|--------------------------------------------------------------------------|
|--------------------------------------------------------------------------|
|-2-------------------------4----------------------------------------------|
|-----2p0-2p0-2p0-2s4-----------2p0-2p0-2p0-2s4----------------------------|
|---4-------------------------0--------------------------------------------|

Guitar 2
|--------------------------------------------------------------------------|
|--------------------------------------------------------------------------|
|-----------------------777777777-999-9/11---------------------------------|
|--444444444444444------777777777-xxx-x/x----------------------------------|
|--444444444444444------555555555-777-7/9----------------------------------|
|--444444444444444------000000000------------------------------------------|


Pre-Chorus
|--------------------------------------------------------------------------|
|--------------------------------------------------------------------------|
|11xx-9xx----------------------11xx-9xx------------------------------------|
|-xxx-xxx--9-7777h9-9-----------xxx-xxx-9-77-9-77-9-77-9999--44-0~---------|
|-9xx-7xx--9-7777h9-9-(x3)then--9xx-7xx-9-77-9-77-9-77-9999--44-0~---------|
|----------9-7777h9-9-------------------9-77-9-77-9-77-9999--44-0~---------|

Chorus
|--------------------------------------------------------------------------|
|--------------------------------------------------------------------------|
|-77777777777777777777777-9/11-1111--4/66----------------------------------|
|-77777777777777777777777-x/x--x-x---x/xx-444444444444-444-777-444-999-----|
|-55555555555555555555555-7/9--9-9---2/44-444444444444-444-777-444-999-----|
|-00000000000000000000000-----------------444444444444-444-777-444-999-----|

Interlude
|--------------------------------------------------------------------------|
|--------------------------------------------------------------------------|
|--------------------------------------------------------------------------|
|--------------------------------------------------------------------------|
|-999--------------------------------777h9---------------------------------|
|----4447779991111911-111111444777999--------------------------------------|

Interlude continued.... guitar above continues throughout this part.
|--------------------------------------------------------------------------|
|---------------------------------------------------------9-10-12----------|
|------------------------------9-9h11-1111--------9-99h11------------------|
|-4xxxxx4----12-11--------9h11--------------9-h11--------------------------|
|-4xxxxx4----------12-9----------------------------------------------------|
|-4xxxxx4------------------------------------------------------------------|

|--------------------------------------------------------------------------|
|-----------------------------------------------------------9-10-12--------|
|--------------------------------9-9h11-1111--------9-99h11----------------|
|----12-11-------12-11------9h11--------------9-h11------------------------|
|-9--------12--9-------12--------------------------------------------------|
|--------------------------------------------------------------------------|

|--------------------------------------------------------------------------|
|-----------------------------------------------------------9-10-12--------|
|--------------------------------9-9h11-1111--------9-99h11----------------|
|----12-11-------12-11------9h11--------------9-h11------------------------|
|-9--------12--9-------12--------------------------------------------------|
|--------------------------------------------------------------------------|

|------------------------------------------------9-------------------------|
|----------------------------------------9-10-12---------------------------|
|----------------------------------9-11------------------------------------|
|----12-11-------12-11-------9-11------------------------------------------|
|-9--------12--9-------12--------------------------------------------------|
|--------------------------------------------------------------------------|

Chorus
|--------------------------------------------------------------------------|
|--------------------------------------------------------------------------|
|-77777777777777777777777-9/11-1111--4/66----------------------------------|
|-77777777777777777777777-x/x--x-x---x/xx-444444444444-444-777-444-999-----|
|-55555555555555555555555-7/9--9-9---2/44-444444444444-444-777-444-999-----|
|-00000000000000000000000-----------------444444444444-444-777-444-999-----|

Chorus again but a little different.
|--------------------------------------------------------------------------|
|--------------------------------------------------------------------------|
|-77777777777777777777777-9/11-1111--4/66----------------------------------|
|-77777777777777777777777-x/x--x-x---x/xx-44444444444444444444444444444----|
|-55555555555555555555555-7/9--9-9---2/44-44444444444444444444444444444----|
|-00000000000000000000000-----------------44444444444444444444444444444----|

Then
|--------------------------------------------------------------------------|
|--------------------------------------------------------------------------|
|-77777777777777777777777-9/11-1111--4/66----------------------------------|
|-77777777777777777777777-x/x--x-x---x/xx-xxx-44-44-777-444-999-7777h99----|
|-55555555555555555555555-7/9--9-9---2/44-xxx-44-44-777-444-999-7777h99----|
|-00000000000000000000000-----------------xxx-44-44-777-444-999-7777h99----|

Chorus normal again
|--------------------------------------------------------------------------|
|--------------------------------------------------------------------------|
|-77777777777777777777777-9/11-1111--4/66----------------------------------|
|-77777777777777777777777-x/x--x-x---x/xx-444444444444-444-777-444-999-----|
|-55555555555555555555555-7/9--9-9---2/44-444444444444-444-777-444-999-----|
|-00000000000000000000000-----------------444444444444-444-777-444-999-----|

Then
|--------------------------------------------------------------------------|
|--------------------------------------------------------------------------|
|-7x7----------------------------------------------------------------------|
|-7x7----------4x4~--------------------------------------------------------|
|-5x5----------4x4~--------------------------------------------------------|
|-0x0----------4x4~--------------------------------------------------------|

Chorus again (x2)
|--------------------------------------------------------------------------|
|--------------------------------------------------------------------------|
|-77777777777777777777777-9/11-1111--4/66----------------------------------|
|-77777777777777777777777-x/x--x-x---x/xx-444444444444-444-777-444-999-----|
|-55555555555555555555555-7/9--9-9---2/44-444444444444-444-777-444-999-----|
|-00000000000000000000000-----------------444444444444-444-777-444-999-----|

Outro
|--------------------------------------------------------------------------|
|--------------------------------------------------------------------------|
|11xx-9xx----------------------11xx-9xx------------------------------------|
|-xxx-xxx--9-7777h9-9-----------xxx-xxx-9-77-9-77-9-77-999--44-0~----------|
|-9xx-7xx--9-7777h9-9-(x3)then--9xx-7xx-9-77-9-77-9-77-999--44-0~----------|
|----------9-7777h9-9-------------------9-77-9-77-9-77-999--44-0~----------|    

Added On December 4th, 2013

SHARE

Comments

blog comments powered by Disqus

VERSIONS

ADVERTISEMENT