Alexisonfire Tabs

Keep It On Wax

4 versions

TAB

            Keep It On Wax Tab by Alexisonfire


Alexisonfire - Keep it on wax

Drop D


Intro (and in various parts of the song)
e:---------------------------------------------------------------------|
b:---------------------------------------------------------------------|
g:---------------------------------------------------------------------|
d:--------1-3-3--3/4/3---------1-3-3-6-4p3h4p3-1-1---6-4p3h4p3---------|
a:--0h2-4----------------0h2-4---------------------------------1--4----|
d:---------------------------------------------------------------------|
    A#5                                        D#5

Verse
e:---------------------------------------------------------------------|
b:---------------------------------------------------------------------|
g:--3---3-3---3-3-3-3-3-3-3-3------------------------------------------|
d:--3---3-3---3-3-3-3-3-3-3-3--1-1-1-1-1-1-1-1-------------------------|
a:--1---1-1---1-1-1-1-1-1-1-1--1-1-1-1-1-1-1-1-------------------------|
d:-----------------------------1-1-1-1-1-1-1-1-------------------------|
    A#5                        D#5

Chorus
e:---------------------------------------------------------------------|
b:---------------------------------------------------------------------|
g:--3-3-3-3-3-3-3-3-3-3-3-3-3------------------------------------------|
d:--3-3-3-3-3-3-3-3-3-3-3-3-3--1-1-1-1-1-1-1-1--4-4-4-4-4-4------------|
a:--1-1-1-1-1-1-1-1-1-1-1-1-1--1-1-1-1-1-1-1-1--4-4-4-4-4-4------------|
d:-----------------------------1-1-1-1-1-1-1-1--4-4-4-4-4-4------------|
    A#5                        D#5              F#5

Bridge

Guitar 1 just plays a palm muted A#, then palm muted D#
e:---------------------------------------------------------------------|
b:---------------------------------------------------------------------|
g:---------------------------------------------------------------------|
d:-------------------------------------------------------1-------------|
a:--1-1-1--1-1-1--etc.-----------------------------------1-------------|
d:--------------------------------------------1--1-1--1--1-------------|
    pm..........                              pm........

Guitar 2 has a small melody, then chords. Not 100% on the melody part.
e:---------------------------------------------------------------------|
b:---------------------------------------------------------------------|
g:---------------------------------3-3-3-/6-6-6--3-3-3-/6-6-6----------|
d:----3-4-3-1--------3-4-3-1-------1-1-1-/4-4-4--1-1-1-/4-4-4----------|
a:--1---------4-4--1---------4-4---------------------------------------|
d:---------------------------------------------------------------------|

Tabed by Brian (http://bmanisms.wordpress.com)    

Added On December 4th, 2013

SHARE

Comments

blog comments powered by Disqus

VERSIONS

ADVERTISEMENT