Alexisonfire Tabs

White Devil

3 versions

TAB

            White Devil Tab by Alexisonfire


Song: White Devil
By: Alexisonfire
Album: "Watch Out!"
Standard Tuning
Distortion


Intro: strum down

e)----------------------------|
B)----------------------------|
G)----------------------------|
D)---4-(x8)-------------------|x2
A)---2-------4-(x8)--5-(x16)--|
E)-----------2-------3--------|
 ..............................palm muted

strum up and down
e)----------------------------|
B)----------------------------|
G)----------------------------|
D)---4-(x5)-------------------|x4
A)---2-------4-(x5)--5-(x10)--|
E)-----------2-------3--------|

strum up and down
e)-----------|
B)-----------|
G)-----------|
D)---4-------|x40
A)---2-------|
E)-----------|

Verse: guitar 1: strum down

e)-----------------------------------|
B)-----------------------------------|
G)-----------------------------------|
D)---4-(x8)-------------------4-(x3)-|x4
A)---2-------4-(x8)--5-(x16)--2------|
E)-----------2-------3---------------|
 ..............................palm muted

Verse:Guitar 2: play over power chords

e)-2--2-2-------------------|
B)---------2--2-2--3-3--3-3-|
G)--------------------------|
D)--------------------------|x4
A)--------------------------|
E)--------------------------|

Chorus: strum up and down

e)----------------------------|
B)----------------------------|
G)----------------------------|
D)---4-(x5)-------------------|x4
A)---2-------4-(x5)--5-(x10)--|
E)-----------2-------3--------|

Post Chorus: strum up and down

e)-----------|
B)-----------|
G)-----------|
D)---4-------|x80
A)---2-------|
E)-----------|

Verse2: strum down 
e)--------------------------|     e)-------------|
B)--------------------------|     B)-------------|
G)--------------------------|     G)-------------|
D)---4-----------2-------2--|x11  D)--4--------2-|x1
A)---2---4---5---0---2---0--|     A)--2--4--5--0-|
E)-------2---3-------0------|     E)-----2--3----|

e)------------------------------------------------------------------------|
B)------------------------------------------------------------------------|
G)------------------------------------------------------------------------|
D)-4-(x6)-------------------4-(x6)----------------------------------2-2-4-|x1
A)-2-------4-(x6)--5-(x12)--2-------4-(x6)--5-(x3)--2-2-X-X-2-2-X-X-0-0-2-|
E)---------2-------3----------------2-------3-------0-0-X-X-0-0-X-X-------|

strum up and down
e)-----------------------------|    e)-------|
B)-----------------------------|    B)-------|
G)-----------------------------|    G)-------|
D)---4-(x8)--------------------|x4  D)-------|x1
A)---2-------4-(x8)--5-(x16)---|    A)--2-2--|
E)-----------2-------3---------|    E)--0-0--|

strum up and down
e)-----------|
B)-----------|
G)-----------|
D)---4-------|x40
A)---2-------|
E)-----------|    

Added On December 4th, 2013

SHARE

Comments

blog comments powered by Disqus

VERSIONS

ADVERTISEMENT