Alice Cooper Tabs

Ballad Of Dwight Frye

3 versions

TAB

            Ballad Of Dwight Frye Tab by Alice Cooper


as you may know,
E, G, D, and C are used in a chord progression for the mostpart of this song, but i have 
out a more complex version of the chorus that is here-

E------------------]
B------------------]
G------------------]
D---2------4-------]
A-3---3--5---5--2--]
E---------------0--]
x2
E--------------------------------]
B--------------------------------]
G------------------------------2-]
D---2------4------------2------0-]
A-3---3--5---5--5h7-5-2-0--3-3---]
E--------------------------------]
x1
that makes up about all of the song.    

Added On December 4th, 2013

SHARE

Comments

blog comments powered by Disqus

VERSIONS

ADVERTISEMENT