Alice Cooper Tabs

Sick Things

1 versions

TAB

            Song: Sick Things 
Band: Alice Cooper
ALbum: Billion Dollar Babies
Year: 1973
Tabbed by DoteStudios

Keys
~~ means to hold the note until Alice starts singing again

 “Sick things” “in cars” “rotate around” “my stars” “Sick things”
E---------------------------------------------------------------------|
B---------------------------------------------------------------------|
G-----------------3-5~~--------------------3-5~~----------------------|
D-3-5~~-----------3-5~~------3-5~~---------3-5~~----3-5~~-------------|
A-3-5~~-----------1-3~~------3-5~~---------1-3~~----3-5~~-------------|
E-1-3~~----------------------1-3~~------------------1-3~~-------------|

 “my things” “my pets” “my things”
E---------------------------------------------------------------------|
B---------------------------------------------------------------------|
G-3-5~~-----------------3-5-7-5-3-5-----------------------------------|
D-3-5~~-------3-5~~-----3-5-7-5-3-5-----------------------------------|
A-1-3~~-------3-5~~-----1-3-5-3-1-3-----------------------------------|
E-------------1-3~~---------------------------------------------------|    

Added On December 16th, 2013

SHARE

Comments

blog comments powered by Disqus

ADVERTISEMENT