Alkaline Trio Tabs

Burn

6 versions

TAB

            Burn Tab by Alkaline Trio


ALKALINE TRIO
BURN
CRIMSON

This is off their new album due out may 24th, once again listen to the song for 
patterns,

INTRO/VERSE sometimes play part (ii) instead of (i)
               (i)           (ii)
e|---------|-------------|---------------|
B|---------|-------------|---------------|
G|--13--13-|-11-11--9--9-|--8--8--9--9---|
D|--13--13-|-11-11--9--9-|--8--8--9--9---|
A|--11--11-|--9--9--7--7-|--6--6--7--7---|
E|-----------------------|---------------|

CHORUS
    (i)           (ii)
e|----------|-----------------------------|
B|----------|-----------------------------|
G|----------|-----------------------------|
D|--2--6--4-|--2--4--5--------------------|
A|--2--6--4-|--2--4--5--------------------|
E|--0--4--2-|--0--2--3--------------------|

part (i) x 3 part (ii) x 1

INTRO/VERSE played faintly

PRE VERSE
e|---------------------------------------|
B|---------------------------------------|
G|--13--8--9-----------------------------|
D|--13--8--9-----------------------------|
A|--11--6--7-----------------------------|
E|---------------------------------------|

INTRO VERSE

CHORUS

INTERLUDE hit each note and let it ring, but in the second part of the last chorus strum 
notes, best to listen to the cd for strumming patterns.

e|---------------------------------------|
B|---------------------------------------|
G|--------4--6---------------------------|
D|--6--2--4--6---------------------------| x 3
A|--6--2--2--4---------------------------|
E|--4--0---------------------------------|

PRE CHORUS
e|---------------------------------------|
B|---------------------------------------|
G|-----6---------------------------------|
D|--2--6---------------------------------| X 1
A|--2--4---------------------------------|
E|--0------------------------------------|

CHORUS

INTERLUDE x 3

PRE CHORUS x 2

OUTRO- play over and over to fade
e|---------------------------------------|
B|---------------------------------------|
G|--13-----------------------------------|
D|--13-----------------------------------|
A|--11-----------------------------------|
E|---------------------------------------|

For corrections email me at e_mericana@hotmail.com    

Added On December 4th, 2013

SHARE

Comments

blog comments powered by Disqus

VERSIONS

ADVERTISEMENT