Alkaline Trio Tabs

Continental

6 versions

TAB

            Continental Tab by Alkaline Trio


Alkaline Trio
Good Mourning --------- Buy the cd great band!!!!
Continental

Standard Tuning


E----------------------------------------------------------
B----------------------------------------------------------
G----------------------------------------------------------  x 2
D-------6-4-7-4-6--6-4-------------------------------------
A--4-4------------------6-6-6-7-6-4------------------------
E----------------------------------------------------------

    " I've got a..... "
E---------------------------------------------------------
B---------------------------------------------------------
G--4------------------------------------------------------   
D--4------------------------------------------------------
A--2------------------------------------------------------
E---------------------------------------------------------

    " You made one Last ....."
E---------------------------------------------------------
B---------------------------------------------------------
G--6------------------------------------------------------
D--6------------------------------------------------------
A--4------------------------------------------------------
E---------------------------------------------------------

    " You had nine lives and....."
E---------------------------------------------------------
B---------------------------------------------------------
G------------------4--------------------------------------
D--7------22-------4--------------------------------------
A--7------22-------2--------------------------------------
E--5------00----------------------------------------------

E---------------------------------------------------------
B---------------------------------------------------------
G---------------------------------------------------------
D--6------7--------9--------------------------------------
A--6------7--------9--------------------------------------
E--4------5--------7--------------------------------------


And the rest is prety much the same, except with some palm muting here
and their if you listen you will figure it out.

AWSOME SONG!!!!    

Added On December 4th, 2013

SHARE

Comments

blog comments powered by Disqus

VERSIONS

ADVERTISEMENT