Alkaline Trio Tabs

I Was A Prayer

3 versions

TAB

            I Was A Prayer Tab by Alkaline Trio


ALKALINE TRIO
I WAS A PRAYER
CRIMSON

This song is off their new album due may 24th

Ring Note
e|---------------------------------------|
B|---------------------------------------|
G|---------------------------------------|
D|--5~-----------------------------------|
A|--5~-----------------------------------|
E|--3~-----------------------------------|


Riff (x2)
e|---------------------------------------|
B|---------------------------------------|
G|---------------------------------------|
D|--0-------2--0-------------------------|
A|----2--5--------3--2-----2--3--2--3----|
E|----------------------0~---------------|


Verse (x2)
e|---------------------------------------|
B|---------------------------------------|
G|-------------------5-------------------|
D|--5--------2-------5-(x8)--5-----------|
A|--5-(x32)--2-(x8)--3-------5-(x16)-----|
E|--3--------0---------------3-----------|
    *        *       *       *lighten up on PM on last 4 strums


Chorus
e|---------------------------------------|
B|---------------------------------------|
G|----------5---------------7------------|
D|--2-------5-(x8)--5-------7-(x8)-------|
A|--2-(x8)--3-------5-(x8)--5------------|
E|--0---------------3--------------------|


Chorus Outro
e|---------------------------------------|
B|---------------------------------------|
G|----------5-------7--------------------|
D|--2-------5-(x8)--7-(x32)--------------|
A|--2-(x8)--3-------5--------------------|
E|--0------------------------------------|


Bridge (x3)
e|---------------------------------------|
B|---------------------------------------|
G|----------5---------------7------------|
D|--2-------5-(x8)--5-------7-(x8)-------|
A|--2-(x8)--3-------5-(x8)--5------------|
E|--0---------------3--------------------|


Bridge Outro
e|---------------------------------------|
B|---------------------------------------|
G|----------5-------7--------------------|
D|--2-------5-(x8)--7-(x32)--------------|
A|--2-(x8)--3-------5--------------------|
E|--0------------------------------------|


End Note
e|---------------------------------------|
B|---------------------------------------|
G|---------------------------------------|
D|--5~-----------------------------------|
A|--5~-----------------------------------|
E|--3~-----------------------------------|


Song order:
Ring Note
Riff (x2)
Ring Note
Verse (x2)
Chorus
Chorus Outro
Riff (x2)
Ring Note
Verse (x2)
Chorus
Chorus Outro
Riff (x2)
Bridge (x3)
Bridge OUtro
End Note

for corrections email me at e_mericana@hotmail.com    

Added On December 4th, 2013

SHARE

Comments

blog comments powered by Disqus

VERSIONS

ADVERTISEMENT