Almost Tabs

Call Me Back When Im Honest

2 versions

TAB

            Song: Call Back When I'm Honest
Artist: The Almost
Album: Southern Weather
Tabbed By: Shizawn
Tuning: Drop D (e b g d a D)

Did this for a request and it is 100% correct! Enjoy!

Intro (Rhythm)
|--------------------------------------------------------------------------|
|--------------------------------------------------------------------------|
|-7-7-7-7-7-7-7-7-9-9-9-9-9-9-9-9--------------------------------------(x2)|
|-7-7-7-7-7-7-7-7-9-9-9-9-9-9-9-9-10-10-10-10-10-10-10-10-7-7-7/8-8-8-8----|
|-5-5-5-5-5-5-5-5-7-7-7-7-7-7-7-7-10-10-10-10-10-10-10-10-7-7-7/8-8-8-8----|
|---------------------------------10-10-10-10-10-10-10-10-7-7-7/8-8-8-8----|

Intro (Lead)
|--------------------------------------------------------------------------|
|--10p0---------------10p0---------------10p0------------------------------|
|-------10p0-9p0-10p0------10p0-9p0-10p0------10p0-9p0-10p0-9p0-10p0-9h10p9|
|--------------------------------------------------------------------------|
|--------------------------------------------------------------------------|
|--------------------------------------------------------------------------|

Verse
|-------------------------------------------------------------------|
|-------------------------------------------------------------------|
|--7-7-7~------------------------7----------------------------------|
|--7-7-7~--7-7-7-7-8-8-8-8--(x2)-7------10------7------8------(x2)--|
|--5-5-5~--7-7-7-7-8-8-8-8-------5--x8--10--x8--7--x8--8--x8--------|
|----------7-7-7-7-8-8-8-8--------------10------7------8------------|

Pre-Chorus
|-------------------------|
|-------------------------|
|-------------------------|
|--0-0-0~----2------------|
|--0-0-0~----3--x16-------|
|--0-0-0~----2------------|

Chorus
|------------------------------------------------------------------|
|------------------------------------------------------------------|
|------------------------------------------------------------------|
|--3-3-3-3-3-3-3-3-1-1-1-1-1-1-1-1-8-8-8-8-8-8-8-8-2-2-2-2-2-2-2-2-|
|--3-3-3-3-3-3-3-3-1-1-1-1-1-1-1-1-8-8-8-8-8-8-8-8-3-3-3-3-3-3-3-3-|
|--3-3-3-3-3-3-3-3-1-1-1-1-1-1-1-1-8-8-8-8-8-8-8-8-2-2-2-2-2-2-2-2-|

Intro

Verse

Pre-Chorus

Chorus

Breakdown
|------------------------------------------------------------------|
|------------------------------------------------------------------|
|------------------------------------------------------------------|
|-0-0-0-0-2-2-3-3-3-3-3-3-8-8-8-8-8-8-8-8-8-8-8-8-8-8-8-8-8--------|
|-0-0-0-0-2-2-3-3-3-3-3-3-8-8-8-8-8-8-8-8-8-8-8-8-8-8-8-8-8--------|
|-0-0-0-0-2-2-3-3-3-3-3-3-8-8-8-8-8-8-8-8-8-8-8-8-8-8-8-8-8--------|

Breakdown (con't)
|------------------------------------------------------------------|
|------------------------------------------------------------------|
|------------------------------------------------------------------|
|-0-0-0-0-2-2-3-3-3-3-3-3-1-1-1-1-1-1-1-1-1-1-1-1-1-1-1-1-1--------|
|-0-0-0-0-2-2-3-3-3-3-3-3-1-1-1-1-1-1-1-1-1-1-1-1-1-1-1-1-1--------|
|-0-0-0-0-2-2-3-3-3-3-3-3-1-1-1-1-1-1-1-1-1-1-1-1-1-1-1-1-1--------|
*repeat whole Breakdown twice*

End of Breakdown
|-----------------------------------------------|
|-----------------------------------------------|
|-----------------------------------------------|
|-0/1-1-1-1-1-1-1-1-1-1-1-1-1-1-1-1-------------|
|-0/1-1-1-1-1-1-1-1-1-1-1-1-1-1-1-1-------------|
|-0/1-1-1-1-1-1-1-1-1-1-1-1-1-1-1-1-------------|

Chorus to end!    

Added On December 16th, 2013

SHARE

Comments

blog comments powered by Disqus

VERSIONS

ADVERTISEMENT