American Head Charge Tabs

Pledge Allegiance

2 versions

TAB

            Pledge Allegiance Tab by American Head Charge


----------------------------------------------------------------------------
		     Pledge Allegiance – American Head Charge
----------------------------------------------------------------------------
Tabbed by: Edd
Email:ed_sk8_87@hotmail.com

It´s not too hard to play it, just listen to the song so you can get the rhythm.

Intro
E|----------------------------------------------------------------|
B|----------------------------------------------------------------|
G|-----13 13 13 13 13 12 12 12 12 12 9 9 9 9 9 9 6 6----4\6\7-----|
D|-0-0-----------------------------------------------0~-----------|
A|-0-0-11 11 11 11 11 10 10 10 10 10 7 7 7 7 7 7 4 4-0~-2\4\5-----|
E|----------------------------------------------------------------|

E|----------------------------------------------------------------|
B|----------------------------------------------------------------|
G|-----13 13 13 13 13 12 12 12 12 12 9 9 9 9 9 9 6 6----4\6\7-----|
D|-0-0-----------------------------------------------0~-----------|
A|-0-0-11 11 11 11 11 10 10 10 10 10 7 7 7 7 7 7 4 4-0~-2\4\5-----|
E|----------------------------------------------------------------|

E|----------------------------------------------------------------|
B|----------------------------------------------------------------|
G|-----13 13 13 13 13 12 12 12 12 12 9 9 9 9 9 9 6 6----4\6\7-----|
D|-0-0-----------------------------------------------0~-----------|
A|-0-0-11 11 11 11 11 10 10 10 10 10 7 7 7 7 7 7 4 4-0~-2\4\5-----|
E|----------------------------------------------------------------|

E|-----------------------------------------------------------------|
B|-----------------------------------------------------------------|
G|-----13 13 13 13 13 12 12 12 12 12 9 9 9 9 9 9 6 6---------------|
D|-0-0-------------------------------------------------------------|
A|-0-0-11 11 11 11 11 10 10 10 10 10 7 7 7 7 7 7 4 4--004005004005-|
E|----------------------------------------------------004005004005-|

1st Verse
e|-------------------------------------------------------------------------|
B|-------------------------------------------------------------------------|
G|-------------------------------------------------------------------------|
D|-2---------2-2-2----2---------2-2-2----2---------2-2-2----2---------2-2-2|
A|-2-x-x-x-x-2-2-2----2-x-x-x-x-2-2-2----2-x-x-x-x-2-2-2----2-x-x-x-x-2-2-2|
E|---x-x-x-x------------x-x-x-x------------x-x-x-x------------x-x-x-x------|
                 *                  *                  *                  *
e|-------------------------------------------------------------------------|
B|-------------------------------------------------------------------------|
G|-------------------------------------------------------------------------|
D|-2---------2-2-2----2---------2-2-2----2---------2-2-2----2---------2-2-2|
A|-2-x-x-x-x-2-2-2----2-x-x-x-x-2-2-2----2-x-x-x-x-2-2-2----2-x-x-x-x-2-2-2|
E|---x-x-x-x------------x-x-x-x------------x-x-x-x------------x-x-x-x------|
                 *                  *                  *                  *
Pre-chorus
E|----------------------------------------------------------------|
B|----------------------------------------------------------------|
G|-----13 13 13 13 13 12 12 12 12 12 9 9 9 9 9 9 6 6----4\6\7-----|
D|-0-0-----------------------------------------------0~-----------|
A|-0-0-11 11 11 11 11 10 10 10 10 10 7 7 7 7 7 7 4 4-0~-2\4\5-----|
E|----------------------------------------------------------------|

E|----------------------------------------------------------------|
B|----------------------------------------------------------------|
G|-----13 13 13 13 13 12 12 12 12 12 9 9 9 9 9 9 6 6----4\6\7-----|
D|-0-0-----------------------------------------------0~-----------|
A|-0-0-11 11 11 11 11 10 10 10 10 10 7 7 7 7 7 7 4 4-0~-2\4\5-----|
E|----------------------------------------------------------------|

E|----------------------------------------------------------------|
B|----------------------------------------------------------------|
G|-----13 13 13 13 13 12 12 12 12 12 9 9 9 9 9 9 6 6----4\6\7-----|
D|-0-0-----------------------------------------------0~-----------|
A|-0-0-11 11 11 11 11 10 10 10 10 10 7 7 7 7 7 7 4 4-0~-2\4\5-----|
E|----------------------------------------------------------------|

E|-----------------------------------------------------------------|
B|-----------------------------------------------------------------|
G|-----13 13 13 13 13 12 12 12 12 12 9 9 9 9 9 9 6 6---------------|
D|-0-0-------------------------------------------------------------|
A|-0-0-11 11 11 11 11 10 10 10 10 10 7 7 7 7 7 7 4 4--004005004005-|
E|----------------------------------------------------004005004005-|
                                                                 *
Chorus
e|----------------------------------------------------|
B|----------------------------------------------------|
G|----------------------------------------------------|
D|----------------------------------------------------|
A|-0-0-3\5 5 5-0-0-3\6 6 6-0-0-3\5 5 5-0-0-4-0-0-5----|
E|-0-0---------0-0---------0-0---------0-0-4-0-0-5----|

e|----------------------------------------------------|
B|----------------------------------------------------|
G|----------------------------------------------------|
D|----------------------------------------------------|
A|-0-0-3\5 5 5-0-0-3\6 6 6-0-0-3\5 5 5-0-0-4-0-0-5----|
E|-0-0---------0-0---------0-0---------0-0-4-0-0-5----|

e|----------------------------------------------------|
B|----------------------------------------------------|
G|----------------------------------------------------|
D|----------------------------------------------------|
A|-0-0-3\5 5 5-0-0-3\6 6 6-0-0-3\5 5 5-0-0-4-0-0-5----|
E|-0-0---------0-0---------0-0---------0-0-4-0-0-5----|

e|----------------------------------------------------|
B|----------------------------------------------------|
G|----------------------------------------------------|
D|----------------------------------------------------|
A|-0-0-3\5 5 5-0-0-3\6 6 6-0-0-3\5 5 5-0-0-4-0-0-5----|
E|-0-0---------0-0---------0-0---------0-0-4-0-0-5----|

2nd Verse
e|-------------------------------------------------------------------------|
B|-------------------------------------------------------------------------|
G|-------------------------------------------------------------------------|
D|-2---------2-2-2----2---------2-2-2----2---------2-2-2----2---------2-2-2|
A|-2-x-x-x-x-2-2-2----2-x-x-x-x-2-2-2----2-x-x-x-x-2-2-2----2-x-x-x-x-2-2-2|
E|---x-x-x-x------------x-x-x-x------------x-x-x-x------------x-x-x-x------|
                 *                  *                  *                  *
e|-------------------------------------------------------------------------|
B|-------------------------------------------------------------------------|
G|-------------------------------------------------------------------------|
D|-2---------2-2-2----2---------2-2-2----2---------2-2-2----2---------2-2-2|
A|-2-x-x-x-x-2-2-2----2-x-x-x-x-2-2-2----2-x-x-x-x-2-2-2----2-x-x-x-x-2-2-2|
E|---x-x-x-x------------x-x-x-x------------x-x-x-x------------x-x-x-x------|
                 *                  *                  *                  *
Pre-chorus
E|----------------------------------------------------------------|
B|----------------------------------------------------------------|
G|-----13 13 13 13 13 12 12 12 12 12 9 9 9 9 9 9 6 6----4\6\7-----|
D|-0-0-----------------------------------------------0~-----------|
A|-0-0-11 11 11 11 11 10 10 10 10 10 7 7 7 7 7 7 4 4-0~-2\4\5-----|
E|----------------------------------------------------------------|

E|----------------------------------------------------------------|
B|----------------------------------------------------------------|
G|-----13 13 13 13 13 12 12 12 12 12 9 9 9 9 9 9 6 6----4\6\7-----|
D|-0-0-----------------------------------------------0~-----------|
A|-0-0-11 11 11 11 11 10 10 10 10 10 7 7 7 7 7 7 4 4-0~-2\4\5-----|
E|----------------------------------------------------------------|

E|----------------------------------------------------------------|
B|----------------------------------------------------------------|
G|-----13 13 13 13 13 12 12 12 12 12 9 9 9 9 9 9 6 6----4\6\7-----|
D|-0-0-----------------------------------------------0~-----------|
A|-0-0-11 11 11 11 11 10 10 10 10 10 7 7 7 7 7 7 4 4-0~-2\4\5-----|
E|----------------------------------------------------------------|

E|------------------------------------------------------------------|
B|------------------------------------------------------------------|
G|-----13 13 13 13 13 12 12 12 12 12 9 9 9 9 9 9 6 6----------------|
D|-0-0--------------------------------------------------------------|
A|-0-0-11 11 11 11 11 10 10 10 10 10 7 7 7 7 7 7 4 4--0040050040050-|
E|----------------------------------------------------0040050040050-|
                                                                  *
Chorus
e|----------------------------------------------------|
B|----------------------------------------------------|
G|----------------------------------------------------|
D|----------------------------------------------------|
A|-0-0-3\5 5 5-0-0-3\6 6 6-0-0-3\5 5 5-0-0-4-0-0-5----|
E|-0-0---------0-0---------0-0---------0-0-4-0-0-5----|

e|----------------------------------------------------|
B|----------------------------------------------------|
G|----------------------------------------------------|
D|----------------------------------------------------|
A|-0-0-3\5 5 5-0-0-3\6 6 6-0-0-3\5 5 5-0-0-4-0-0-5----|
E|-0-0---------0-0---------0-0---------0-0-4-0-0-5----|

e|----------------------------------------------------|
B|----------------------------------------------------|
G|----------------------------------------------------|
D|----------------------------------------------------|
A|-0-0-3\5 5 5-0-0-3\6 6 6-0-0-3\5 5 5-0-0-4-0-0-5----|
E|-0-0---------0-0---------0-0---------0-0-4-0-0-5----|

e|----------------------------------------------|
B|----------------------------------------------|
G|----------------------------------------------|
D|----------------------------------------------|
A|-0-0-3\5 5 5-0-0-3\6 6 6-0-0-3\5 5 5-0-2-3-4--|
E|-0-0---------0-0---------0-0---------0-2-3-4--|

Interlude
e|----------------------------------------------------------------------|
B|----------------------------------------------------------------------|
G|----------------------------------------------------------------------|
D|----------------------------------------------------------------------|
A|-10-0-4-0-3-3-0-9-0-4-0-3-3-0-3-0----10-0-4-0-3-3-0-9-0-4-0-3-3-0-3-0-|
E|-10-0-4-0-3-3-0-9-0-4-0-3-3-0-3-0----10-0-4-0-3-3-0-9-0-4-0-3-3-0-3-0-|

e|----------------------------------------------------------------|
B|----------------------------------------------------------------|
G|----------------------------------------------------------------|
D|----------------------------------------------------------------|
A|-10-0-4-0-3-3-0-9-0-4-0-3-3-0-3-0----10-0-4-0-3-3-0-9-4-3-0-3-0-|
E|-10-0-4-0-3-3-0-9-0-4-0-3-3-0-3-0----10-0-4-0-3-3-0-9-4-3-0-3-0-|

e|------------------------------------------------------------------|
B|------------------------------------------------------------------|
G|------------------------------------------------------------------|
D|------------------------------------------------------------------|
A|-9~-4~-3~~~---9~-3~-2~~~---9~-4~-3~~~---9~-3~-2~~~---0~-3~-0~~~---|
E|-9~-4~-3~~~---9~-3~-2~~~---9~-4~-3~~~---9~-3~-2~~~---0~-3~-0~~~---|

e|----------------------------------------------------------|
B|----------------------------------------------------------|
G|----------------------------------------------------------|
D|----------------------------------------------0~~~~~~~~~~-|
A|-9~-4~-3~~~---9~-3~-0~~~---9~-4~-3~~~---9~-4~-0~~~~~~~~~~-|
E|-9~-4~-3~~~---9~-3~-0~~~---9~-4~-3~~~---9~-4~-------------|

Pre-chorus
E|-------------------------------------------------------------|
B|-------------------------------------------------------------|
G|--13 13 13 13 13 12 12 12 12 12 9 9 9 9 9 9 6 6----4\6\7-----|
D|------------------------------------------------0~-----------|
A|--11 11 11 11 11 10 10 10 10 10 7 7 7 7 7 7 4 4-0~-2\4\5-----|
E|-------------------------------------------------------------|

E|----------------------------------------------------------------|
B|----------------------------------------------------------------|
G|-----13 13 13 13 13 12 12 12 12 12 9 9 9 9 9 9 6 6----4\6\7-----|
D|-0-0-----------------------------------------------0~-----------|
A|-0-0-11 11 11 11 11 10 10 10 10 10 7 7 7 7 7 7 4 4-0~-2\4\5-----|
E|----------------------------------------------------------------|

Chorus
e|----------------------------------------------------|
B|----------------------------------------------------|
G|----------------------------------------------------|
D|----------------------------------------------------|
A|-0-0-3\5 5 5-0-0-3\6 6 6-0-0-3\5 5 5-0-0-4-0-0-5----|
E|-0-0---------0-0---------0-0---------0-0-4-0-0-5----|

e|----------------------------------------------------|
B|----------------------------------------------------|
G|----------------------------------------------------|
D|----------------------------------------------------|
A|-0-0-3\5 5 5-0-0-3\6 6 6-0-0-3\5 5 5-0-0-4-0-0-5----|
E|-0-0---------0-0---------0-0---------0-0-4-0-0-5----|

e|----------------------------------------------------|
B|----------------------------------------------------|
G|----------------------------------------------------|
D|----------------------------------------------------|
A|-0-0-3\5 5 5-0-0-3\6 6 6-0-0-3\5 5 5-0-0-4-0-0-5----|
E|-0-0---------0-0---------0-0---------0-0-4-0-0-5----|

e|----------------------------------------------------|
B|----------------------------------------------------|
G|----------------------------------------------------|
D|----------------------------------------------------|
A|-0-0-3\5 5 5-0-0-3\6 6 6-0-0-3\5 5 5----------------|
E|-0-0---------0-0---------0-0------------------------|

Outro
e|------------------------------------------------------------------|
B|------------------------------------------------------------------|
G|------------------------------------------------------------------|
D|----------------------------------------------------------------0-|
A|-00-4-00-5-00-4-00-5-00-4-00-5-00-4-00-5-00-4-00-5-00-4-00-50---0-|
E|-00-4-00-5-00-4-00-5-00-4-00-5-00-4-00-5-00-4-00-5-00-4-00-50-----|
                                                              *   *

It´s my second tab, I think it sounds better than the first one. I hope you enjoy it, 
comments please e-mail me, and don´t forget to rate it, ok?? Be cool!!!!!!!

| /  slide up
| \  slide down
| h  hammer-on
| p  pull-off
| ~  vibrato
| +  harmonic
| x  Mute note
| *  Palm mute
============================================================================    

Added On December 4th, 2013

SHARE

Comments

blog comments powered by Disqus

VERSIONS

ADVERTISEMENT