American Hi-Fi Tabs

The Art Of Losing

5 versions

TAB

            The Art Of Losing Tab by American Hi-fi


American Hi-Fi -  The Art of Losing
By:Andrew Mcshan

i hate tuning my guitar to d and the other tab is in Drop D so i tabbed
it in standard, i think its pretty correct, c ya : )~

Intro/Verse
e|---------------------------------------------------------------------------|
B|---------------------------------------------------------------------------|
G|-7-7/9-9---------7--7------------------------------------------------------|
D|-7-7/9-9----0r---7--7-2-2--------------------------------------------------|
A|-5-5/7-7---------5--5-2-2--------------------------------------------------|
E|----------------------0-0--------------------------------------------------|
Guitar During Verse
e|---------------------------------------------------------------------------|
B|---------------------------------------------------------------------------|
G|-9-9--7-7-5-5--9-9--------7--7--7--5--5--7-7-------------------------------|
D|-x-x--x-x-x-x--x-x--x2----7--7--7--5--5--7-7-------------------------------|
A|-7-7--5-5-3-3--7-7--------5--5--7--3--3--5-5-------------------------------|
E|---------------------------------------------------------------------------|
Chorus
e|---------------------------------------------------------------------------|
B|---------------------------------------------------------------------------|
G|-----5-5-----7-7-------5-7-------------------------------------------------|
D|-2-2-5-5-5-5-7-7--x3-5-5-7-------------------------------------------------|
A|-2-2-3-3-5-5-5-5-----5-3-5-------------------------------------------------|
E|-0-0-----3-3---------3-----------------------------------------------------|
                       Pm.......
Bridge 
e|---------------------------------------------------------------------------|
B|---------------------------------------------------------------------------|
G|-5--7-5--7--5~~------------------------------------------------------------|
D|-5--7-5--7--5~~------------------------------------------------------------|
A|-3--5-3--3--3~~------------------------------------------------------------|
E|---------------------------------------------------------------------------|

Intro 

Chorus 

"Were the kids in america"
e|---------------------------------------------------------------------------|
B|---------------------------------------------------------------------------|
G|----7-5--7-----------------------------------------------------------------|
D|-5--7-5--7-----------------------------------------------------------------|
A|-3--5-3--3-----------------------------------------------------------------|
E|-3-------------------------------------------------------------------------|    

Added On December 4th, 2013

SHARE

Comments

blog comments powered by Disqus