Amon Amarth Tabs

In Pursuit Of The Vikings

1 versions

TAB

            In Pursuit Of The Vikings Tab by Amon Amarth


This song is absolutely wonderfull.listen to the song before u play it

The beggining
|---------------------------------|
|---------------------------------|
|---------------------------------|
|---------------------------------|This is the rhythm guitar.Its like that in          
|---------------------------------|the whole song
|-0-000-0-000-000-0-000-0-000-000-|

Then both guitars play this and the solo guitar plays....
|---------------------------------|
|---------------------------------|
|---------------------------------|
|---------------------------------|
|-0-2-3-0-7-----------------------|x2
|---------------------------------|
|---------------------------------|

|---------------------------------|
|---------------------------------|
|---------------------------------|(then the rhythm Guitar)
|---------------------------------|
|---------------------------------|
|-0-000-0-0-000-0-0-000-0-0-000-0-|

The solo guitar
|---------------------------------|
|---------------------------------|
|---------------------------------|
|---------------------------------|
|-6-7-9-7-6-5-5-6-6-7-9-7-6-4-4-0-|
|---------------------------2-2-0-|

Now u play the same as the beggining and then 

|---------------------------------|
|---------------------------------|
|---------------------------------|(Rhythmic Guitar)
|---------------------------------|
|------4-3----------4-3-----------|
|-0-00-2-1-000-0-00-2-1-----------|

And the solo guitar
|---------------------------------|
|---------------------------------|
|-9-8----9-9-8-8-6-9-8------------|
|-9-8----9-9-8-8-6-9-8------------|
|-7-6----7-7-6-6-4-7-6------------|
|-----0-0--------------2-2-2-0----|

|---------------------------------------------------------|\
|---------------------------------------------------------||
|---------------------------------------------------------||
|-0-0-0-0-7-7-7-7-6-6-7-7-8-8-8-8-8-8-9-9-8-8-8-8-8-8-8-8-||
|---------------------------------------------------------||
|---------------------------------------------------------||
                                                           |}x2
|---------------------------------------------------------||
|---------------------------------------------------------||
|---------------------------------------------------------||
|-0-0-0-0-9-9-10-10-6-6-6-6-6-6--6-6-5-5-4-4-2-2----------||
|---------------------------------------------------------||
|---------------------------------------------------------|/
                                                           
|---------------------------------------------------|      
|---------------------------------------------------|      
|---------------------------------------------------|      
|-7-7-7-7-6-6-6-6-3-5-6-----------------------------| x4     
|---------------------------------------------------|      
|---------------------------------------------------|  

Well thats it.enjoy!!!!!!!!!!!!!!!!
MAKE ME BETTER(Ring_of_Sauron@hotmail.com)    

Added On December 4th, 2013

SHARE

Comments

blog comments powered by Disqus

ADVERTISEMENT