Anal Cunt Tabs

Hitler Was A Sensitive Man

1 versions

TAB

            Hitler Was A Sensitive Man Tab by Anal Cunt


Band: Anal Cunt
Song: Hitler Was A Sensitive Man

Tuning: Full step down
(heavy distortion)

Intro
e|-------------------------------------------------------------------------|
B|-------------------------------------------------------------------------|
G|-------------------------------------------------------------------------|
D|-222233334444666644443333------------------------------------------------|
A|-222233334444666644443333------------------------------------------------|
E|-222233334444666644443333------------------------------------------------|


Verse
e|-------------------------------------------------------------------------|
B|-------------------------------------------------------------------------|
G|-------------------------------------------------------------------------|
D|-6--6--4-4-4--------------------------------------------------------------|
A|-6--6--4-4-4-------------------------------------------------------------|
E|-4--4--2-2-2-------------------------------------------------------------|

Heavy Screaming Part
e|-------------------------------------------------------------------------|
B|-------------------------------------------------------------------------|
G|-------------------------------------------------------------------------|
D|-3---------------------------555-4---------------------------------------|
A|-3    

Added On December 4th, 2013

SHARE

Comments

blog comments powered by Disqus

ADVERTISEMENT