Andres Calamaro Tabs

Me Estas Atrapando Otra Vez

1 versions

TAB

            Aunque la otra versión estaba bien calificada los acordes no eran del
todo correctos. Es fácil,espero les guste!

br: Estira y baja la cuerda!!


INTRO
    D     F#m       Bm           A7 D           F#m       Bm    A7
e---------------------------------------------------------------|
b-----------10p7------------------------------------------------|
G----------------9-7-7h9p7-------------7-9br-7-9~--7-9br-7------|
D--------------------------7~------------------------------9~---|
A---------------------------------------------------------------|
E---------------------------------------------------------------|

  D             F#m                 Bm
e--------------12br-10--10-----------------------------|
b---------------------12----12-10----------------------|
G---------9-11----------------------9br-7---7~---------|
D----9-12---------------------------------9------------|
A-12---------------------------------------------------|
E------------------------------------------------------|

   Em           A7
e----------------------------------|
b----------------------------------|
G----------7~--------7-9br-7-9~----|
D-----7--9------7--9---------------|
A--10------------------------------|
E----------------------------------|


D       F#m      Bm     A7    

Added On December 16th, 2013

SHARE

Comments

blog comments powered by Disqus

ADVERTISEMENT